Less Than Jake - The Brightest Bulb Has Burned Out Screws Fall Out Chords & Tabs

 

The Brightest Bulb Has Burned Out Screws Fall Out Chords & Tabs

Less Than Jake Chords & Tabs

Version: 1 Type: Tab 0 ratings
1 star 2 stars 3 stars 4 stars 5 stars
comments

The Brightest Bulb Has Burned Out Screws Fall Out Tab

   
Artist: Less Than Jake
Song: The Brightest Bulb has Burned Out/Screws Fall Out
Album: Anthem
Tabbed By: John Ellis(Tuxedo Man)

Intro:
e|--------------------|
B|--------------------|
G|-----------7777-----|
D|--7-77777--7777--7--|
A|--7-77777--5555--7--|
E|--5-55555--------5--|

Verse:
e|----------------------------------|
B|----------------------------------|
G|-----------6-x-6-x-6-7-x-7-x-7-7--|
D|--7-77777--6-x-6-x-6-7-x-7-x-7-7--|
A|--7-77777--4-x-4-x-4-5-x-5-x-5-5--|
E|--5-55555-------------------------|

Pre-Chorus:
"You're feeling more dead than alive..."
e|-----------------------------------|
B|-----------------------------------|
G|--------7777-----------------7777--|
D|--5555--7777--7-77777--5555--7777--|
A|--5555--5555--7-77777--5555--5555--|
E|--3333--------5-55555--3333--------|

Chorus: (G, Cadd9, D, D4)
the (2)'s are from the capo
e|---5------5------4---5---|
B|---5------5------5---5---|
G|--(2)----(2)-----4---4---|
D|--(2)-----4-----(2)-(2)--|
A|---4------5-----(2)-(2)--|
E|---5-----(2)----(2)-(2)--|

Figure out the strumming from the song...

Outro:
e|---------------------|
B|---------------------|
G|------------7777--9--|
D|--55555555--7777--9--|
A|--55555555--5555--7--|
E|--33333333-----------|

Intro x2
-----------------------------------------------------------------------|
-----------------------------------------------------------------------|
---777----77--------777--77--------------------------------------------|
-77777777777779995557777777--------------------------------------------|
-77555777755779995555557755--------------------------------------------|
-55---5505--55777333---55----------------------------------------------|

[ Tab from: http://www.guitartabs.cc/tabs/l/less_than_jake/the_brightest_bulb_has_burned_out_screws_fall_out_tab.html ]
Verse x2
-----------------------------------------------------------------------|
-----------------------------------------------------------------------|
-666666667777666677777777666677777777666677776666666666666666----------|
-----------------------------------------------------------------------|
-----------------------------------------------------------------------|
-----------------------------------------------------------------------|

Continued
-----------------------------------------------------------------------|
-----------------------------------------------------------------------|
-----------------------------------------------------------------------|
---77777777-77777------------------------------------------------------|
---77777777-77777------------------------------------------------------|
---55555555-55555------------------------------------------------------|
PM xxxxxxxx

Intro x4
Verse x4
Intro x4

Bridge (Guitar 1)
-----------------------------------------------------------------------|
-----------------------------------------------------------------------|
---7-------7--------------7--------77777777--------7777777777777777----|
-7-7-----7-7---------7----7--------77777777777777777777777777777777----|
-7-5-----7-5---------7----5--------55555555777777775555555555555555----|
-5-------5-----------5---------------------55555555--------------------|
					  PM xxxxxxxxxxxxxxxxxxxxxxxx

Bridge (Guitar 2) (line this one up with the one above)
-----------------------------------------------------------------------|
-----------------------------------------------------------------------|
-----------------------------------------------------------------------|
-----------------------------------------------------------------------|
----7975457---(12)(11)9457-575975--------------------------------------|
-----------------------------------------------------------------------|

Intro x8
Comments