Less Than Jake - Short Fuse Burning Chords & Tabs

 

Short Fuse Burning Chords & Tabs

Less Than Jake Chords & Tabs

Version: 1 Type: Tab 0 ratings
1 star 2 stars 3 stars 4 stars 5 stars
comments

Short Fuse Burning Tab

Artist: Less Than Jake
Tab:Short Fuse Burning
Album: Anthem
Tuning: Standard EADGBe

Ok This is Off Anthem Less Than Jakes Most Recent album release this is probs
one of the best songs off it its fast paced and the begining is fast paced.



Intro/Riff x4
e|-----------------------------------------------|
B|---7-5-5-5-7-5-5-5-7-5---5-4-4-4-5-4-4-4-5-7---|
G|-----------------------------------------------|
D|-----------------------------------------------|
A|-----------------------------------------------|
E|-----------------------------------------------|


e|--------------------------------------------------------------|
B|---12-10-10-10-12-10-10-10-12-10---10-9-9-9-10-9-9-9-10p9p7---|
G|--------------------------------------------------------------|
D|--------------------------------------------------------------|
A|--------------------------------------------------------------|
E|--------------------------------------------------------------|




Verse 1

  (P.M. Throughout)

e|----------------------------------------------------------------------|
B|----------------------------------------------------------------------|
G|-------------------------------------99-9-9--99-9-9--99-9-9--99-9-9---| 2x
D|----99-9-9--99-9-9--99-9-9--99-9-9---99-9-9--99-9-9--99-9-9--99-9-9---|
A|----99-9-9--99-9-9--99-9-9--99-9-9---77-7-7--77-7-7--77-7-7--77-7-7---|
E|----77-7-7--77-7-7--77-7-7--77-7-7------------------------------------|

Chorus


e|------------------------------------------------------|
B|------------------------------------------------------|
G|---7-7--/9-9--\5-5----------/7-7--/9-9--\5-5-5--------|
D|---7-7--/9-9--\5-5--5-5-5---/7-7--/9-9--\5-5-5--5-5---|
A|---5-5--/7-7--\3-3--5-5-5---/5-5--/7-7--\3-3-3--5-5---|
E|--------------------3-3-3-----------------------3-3---|



e|--------------------------------------|
B|--------------------------------------|
G|---7-7--/9-9--\5-5---------------/5---|
D|---7-7--/9-9--\5-5--5-5-5--\4-4--/5---|
A|---5-5--/7-7--\3-3--5-5-5--\4-4--/3---|
E|--------------------3-3-3--\2-2-------|


Back to main riff x2

e|-----------------------------------------------|
B|---7-5-5-5-7-5-5-5-7-5---5-4-4-4-5-4-4-4-5-7---|
G|-----------------------------------------------|
D|-----------------------------------------------|
A|-----------------------------------------------|
E|-----------------------------------------------|



e|--------------------------------------------------------------|
B|---12-10-10-10-12-10-10-10-12-10---10-9-9-9-10-9-9-9-10p9p7---|
G|--------------------------------------------------------------|
D|--------------------------------------------------------------|
A|--------------------------------------------------------------|
E|--------------------------------------------------------------|

Verse 2


e|----------------------------------------------------------------------| 
B|----------------------------------------------------------------------|
G|-------------------------------------99-9-9--99-9-9--99-9-9--99-9-9---|x2
D|----99-9-9--99-9-9--99-9-9--99-9-9---99-9-9--99-9-9--99-9-9--99-9-9---|
A|----99-9-9--99-9-9--99-9-9--99-9-9---77-7-7--77-7-7--77-7-7--77-7-7---|
E|----77-7-7--77-7-7--77-7-7--77-7-7------------------------------------|



e|----------------|
B|----------------|
G|---9--9--9--9---|
D|---9--9--9--9---|
A|---7--7--7--7---|
E|----------------|


Chorus

e|------------------------------------------------------|
B|------------------------------------------------------|
G|---7-7--/9-9--\5-5----------/7-7--/9-9--\5-5-5--------|
D|---7-7--/9-9--\5-5--5-5-5---/7-7--/9-9--\5-5-5--5-5---|
A|---5-5--/7-7--\3-3--5-5-5---/5-5--/7-7--\3-3-3--5-5---|
E|--------------------3-3-3-----------------------3-3---|

 
[ Tab from: http://www.guitartabs.cc/tabs/l/less_than_jake/short_fuse_burning_tab.html ]
e|--------------------------------------|
B|--------------------------------------|
G|---7-7--/9-9--\5-5---------------/5---|
D|---7-7--/9-9--\5-5--5-5-5--\4-4--/5---|
A|---5-5--/7-7--\3-3--5-5-5--\4-4--/3---|
E|--------------------3-3-3--\2-2-------|


Bridge


e|-------------------------------------------------------------------------------|
B|-------------------------------------------------------------------------------|
G|---------------------/7-x-x-x-7--7-7-7--/9-x-x-x-9--9-9-9---9-x-x-x-9--9-9-9---|x4
D|---5-x-x-x-5--5-5-5--/7-x-x-x-7--7-7-7--/9-x-x-x-9--9-9-9---9-x-x-x-9--9-9-9---|
A|---5-x-x-x-5--5-5-5--/5-x-x-x-5--5-5-5--/7-x-x-x-7--7-7-7---7-x-x-x-7--7-7-7---|
E|---3-x-x-x-3--3-3-3------------------------------------------------------------|


   
(Guitar Two)

e|------------------------------------------------------|
B|------------------------------------------------------|
G|-----------------------------9--\7--/9----9--\7--/9---|x2
D|---9--\7--/9----9--\7--/9----9--\7--/9----9--\7--/9---|
A|---9--\7--/9----9--\7--/9----7--\5--/7----7--\5--/7---|
E|---7--\5--/7----7--\5--/7-----------------------------|



  (Guitar One)

e|-----------------------------------------------|
B|---7-5-5-5-7-5-5-5-7-5---5-4-4-4-5-4-4-4-5-7---|
G|-----------------------------------------------|
D|-----------------------------------------------|
A|-----------------------------------------------|
E|-----------------------------------------------|

Then:

e|--------------------------------------------------------------|
B|---12-10-10-10-12-10-10-10-12-10---10-9-9-9-10-9-9-9-10p9p7---|
G|--------------------------------------------------------------|
D|--------------------------------------------------------------|
A|--------------------------------------------------------------|
E|--------------------------------------------------------------|


Chorus


e|------------------------------------------------------|
B|------------------------------------------------------|
G|---7-7--/9-9--\5-5----------/7-7--/9-9--\5-5-5--------|
D|---7-7--/9-9--\5-5--5-5-5---/7-7--/9-9--\5-5-5--5-5---|
A|---5-5--/7-7--\3-3--5-5-5---/5-5--/7-7--\3-3-3--5-5---|
E|--------------------3-3-3-----------------------3-3---|

    
e|--------------------------------------|
B|--------------------------------------|
G|---7-7--/9-9--\5-5---------------/5---|
D|---7-7--/9-9--\5-5--5-5-5--\4-4--/5---|
A|---5-5--/7-7--\3-3--5-5-5--\4-4--/3---|
E|--------------------3-3-3--\2-2-------|


Bridge

 
  (Guitar two)

e|-------------------------------------------------------------------------------|
B|-------------------------------------------------------------------------------|
G|---------------------/7-x-x-x-7--7-7-7--/9-x-x-x-9--9-9-9---9-x-x-x-9--9-9-9---|x4
D|---5-x-x-x-5--5-5-5--/7-x-x-x-7--7-7-7--/9-x-x-x-9--9-9-9---9-x-x-x-9--9-9-9---|
A|---5-x-x-x-5--5-5-5--/5-x-x-x-5--5-5-5--/7-x-x-x-7--7-7-7---7-x-x-x-7--7-7-7---|
E|---3-x-x-x-3--3-3-3------------------------------------------------------------|



(Guitar One)

e|-----------------------------------------------|
B|---7-5-5-5-7-5-5-5-7-5---5-4-4-4-5-4-4-4-5-7---|
G|-----------------------------------------------|x3
D|-----------------------------------------------|
A|-----------------------------------------------|
E|-----------------------------------------------|


e|--------------------------------------------------------------|
B|---12-10-10-10-12-10-10-10-12-10---10-9-9-9-10-9-9-9-10p9p7---|
G|--------------------------------------------------------------|
D|--------------------------------------------------------------|
A|--------------------------------------------------------------|
E|--------------------------------------------------------------|


e|---------------------------|
B|---------------------------|
G|----------------9----------|
D|---9--\7--/9----9--9--9\---|
A|---9--\7--/9----7--9--9\---|
E|---7--\5--/7-------7--7\---|


Thats all comments questions etc whisky@oink.co.uk
Comments