Less Than Jake - Shes Gonna Break Soon Chords & Tabs

 

Shes Gonna Break Soon Chords & Tabs

Less Than Jake Chords & Tabs

Version: 1 Type: Tab 0 ratings
1 star 2 stars 3 stars 4 stars 5 stars
comments

Shes Gonna Break Soon Tab

   
--------------------------------------------------------------------------------
                    She's Gonna Break Soon - Less Then Jake
--------------------------------------------------------------------------------

Artist: Less Then Jake
Song: She's Gonna Break Soon
Albulm: Anthem
Tabbed by: Zero is great man
Tunning: EADGBe
Website: http://www.lessthenjake.com

Intro: "She's Gonna Break Soon"
e|-----------------------------------|
B|-----------------------------------|   . = Palm Mute
G|-9-9-9-9--7-7-7-7------------------|
D|-9-9-9-9--7-7-7-7--7-7-7-7-7-7-7-7-|
A|-7-7-7-7--5-5-5-5--7-7-7-7-7-7-7-7-|
E|-------------------5-5-5-5-5-5-5-5-|
   . .      . .     |-------p.m.----|
[ Tab from: http://www.guitartabs.cc/tabs/l/less_than_jake/shes_gonna_break_soon_tab.html ]
Verse:
e|---------------------------------------------------|
B|---------------------------------------------------|
G|-7-7-7-7--9-9-9-9----------------------------------|
D|-7-7-7-7--9-9-9-9--7-7-7-7-7-7-7-7-7-7-7-7-7-7-7-7-|
A|-5-5-5-5--7-7-7-7--7-7-7-7-7-7-7-7-7-7-7-7-7-7-7-7-|
E|-------------------5-5-5-5-5-5-5-5-5-5-5-5-5-5-5-5-|
                    |---------------p.m.------------|

Pre - Chorus:
e|-----------------------------------|
B|-----------------------------------|
G|------------------7-7-7-7-7-7--9-9-|
D|-9-9-9-9-9-9-9-9--7-7-7-7-7-7--9-9-|
A|-9-9-9-9-9-9-9-9--5-5-5-5-5-5--7-7-|
E|-7-7-7-7-7-7-7-7-------------------|


Chorus:"She's Gonna Break Soon, Gonna Break Soon."
e|-----------------------------------|
B|-----------------------------------|  
G|-9-9-9-9--7-7-7-7------------------|
D|-9-9-9-9--7-7-7-7--7-7-7-7-7-7-7-7-|
A|-7-7-7-7--5-5-5-5--7-7-7-7-7-7-7-7-|
E|-------------------5-5-5-5-5-5-5-5-|


Outro:
e|---|
B|---|
G|---|
D|-7-|
A|-7-|
E|-5-|


| ~ - Vibreto
| b - Bend Note
|() - Bend to fret pitch
| s - Slap
| t - Tap
| x - Muted Note
| . - Palm Mute
| + - Harmonics
| / - Slide up
| \ - Slide down

================================================================================
Comments