Less Than Jake - Shes Gonna Break Soon Chords & Tabs

 

Shes Gonna Break Soon Chords & Tabs

Less Than Jake Chords & Tabs

Version: 2 Type: Bass Tab 0 ratings
1 star 2 stars 3 stars 4 stars 5 stars
comments

Shes Gonna Break Soon Bass Tab

Less Than Jake
She's Gonna Break Soon Bass Tab
Tabbed by Andrew Jones

The only bass tab on this site was only 1 star, so i took it upon myself to improve.
this is my first tab so please tell me what you think. i think this is very close. so
enjoy!

bass doesnt enter until the verse 
Verse
G:----------------------------------|
D:-------------------------77665544-|
A:-5-5555557-775-5500445577---------|x2
E:----------------------------------|


G:--------------------------------------------------|
D:--------------------------------------------------|
A:-5-5555557-777777-----9-------9-9555555557-7------|
E:-----------------7---7---7-7-7-7------------------|

Chorus
G:--------------------------------------------------------------------|
D:--------------------------------------------------------------------|
A:-7~-7~---5~-5~-------------4-5-6-7~-7~---5~-5~----------------------|
E:-----------------5~-5~--5~-----------------------5~-5~---0h55-0h55--|

G:------------------------------------------------------------------|
D:---------------------------------------------------------77665544-|
A:-7~-7~---5~-5~----------4~-5-6-7-7~-7~---5~-5~---00445577---------|
E:-----------------5~-5~--------------------------------------------|

Verse
G:----------------------------------|
D:-------------------------77665544-|
A:-5-5555557-775-5500445577---------|x2
E:----------------------------------|

G:--------------------------------------------------|
D:--------------------------------------------------|
A:-5-5555557-777777-----9-------9-9555555557-7------|
E:-----------------7---7---7-7-7-7------------------|


Chorus
G:--------------------------------------------------------------------|
D:--------------------------------------------------------------------|
A:-7~-7~---5~-5~-------------4-5-6-7~-7~---5~-5~----------------------|
E:-----------------5~-5~--5~-----------------------5~-5~---0h55-0h55--|

G:--------------------------------------------------|
D:--------------------------------------------------|
A:-7~-7~---5~-5~----------4~-5-6-7-7~-7~---5~-5~----|
E:-----------------5~-5~----------------------------|
[ Tab from: http://www.guitartabs.cc/tabs/l/less_than_jake/shes_gonna_break_soon_btab_ver_2.html ]
G:------------------------------------------------------------------|
D:------------------------------------------------------------------|
A:---------------------------------------------------------7-777777-|
E:-555555554-4444443-3333332-2222225-5555554-4444443-333333---------|

Bridge
G:------------------------------------------------------------------|
D:-------------4422-------------------------------------------------|
A:-222222222222----------------4422----------------7777777777777777-|
E:-----------------222222222222----5555555555555555-----------------|

G:------------------------------------------------------------------|
D:-------------4422-------------------------------------------------|
A:-222222222222----------------4422----------------5555555555555555-|
E:-----------------222222222222----3333333333333333-----------------|

G:------------------|
D:-000000002-2------|
A:------------------|
E:------------------|

Chorus
G:--------------------------------------------------------------------|
D:--------------------------------------------------------------------|
A:-7~-7~---5~-5~-------------4-5-6-7~-7~---5~-5~----------------------|
E:-----------------5~-5~--5~-----------------------5~-5~---0h55-0h55--|

G:--------------------------------------------------|
D:--------------------------------------------------|
A:-7~-7~---5~-5~----------4~-5-6-7-7~-7~---5~-5~----|
E:-----------------5~-5~----------------------------|

G:------------------------------------------------------------------|
D:----------------------------------------------------7-------5-----|
A:---------------557777777755555555--------------557-7---775-5---55-|
E:-55555555555577------------------55555555555577-------------------|

G:----------------------------------|  |----------------------------------|
D:----------------------------------|  |----------------------------------|
A:----------------------------------|x2|---------7-777777--------5-555555-|
E:-5-5555554-4444443-3333332-222222-|  |-5-555555--------3-333333---------|

Outro
G:------------------------------------------------------------------|
D:-----------------5~~~---------------------------------------------|
A:-------------------------5~~~-------------------------------------|
E:-5~~~----0~~~--------------------5~~~-----------------------------|
Comments