Less Than Jake - Shes Gonna Break Soon Chords & Tabs

 

Shes Gonna Break Soon Chords & Tabs

Less Than Jake Chords & Tabs

Version: 1 Type: Bass Tab 0 ratings
1 star 2 stars 3 stars 4 stars 5 stars
comments

Shes Gonna Break Soon Bass Tab

   
--------------------------------------------------------------------------------
                    She's Gonna Break Soon - Less Then Jake
--------------------------------------------------------------------------------
Artist: Less Then Jake
Song: She's Gonna Break Soon
Albulm: Anthem
Tabbed by: Zero is great man
Tunning: EADG
[ Tab from: http://www.guitartabs.cc/tabs/l/less_than_jake/shes_gonna_break_soon_btab.html ]
Intro: "She's Gonna Break Soon"
G|-----------------------------------|
D|-----------------------------------|
A|----------5-5-5-5------------------|
E|-0-0-0-0-----------5-5-5-5-5-5-5-5-|
   
Verse:
G|---------------------------------------------------|
D|---------------------------------------------------|
A|-5-5-5-5-------------------------------------------|
E|----------0-0-0-0--5-5-5-5-5-5-5-5-5-5-5-5-5-5-5-5-|
                    
Pre - Chorus:
G|-----------------------------------|
D|-----------------------------------|
A|------------------5-5-5-5-5-5------|
E|-7-7-7-7-7-7-7-7---------------0-0-|

Chorus:"She's Gonna Break Soon, Gonna Break Soon."  
G|-----------------------------------|
D|-----------------------------------|
A|----------5-5-5-5------------------|
E|-0-0-0-0-----------5-5-5-5-5-5-5-5-|

Outro:
G|---|
D|---|
A|---|
E|-5-|

| ~ - Vibreto
| b - Bend Note
|() - Bend to fret pitch
| s - Slap
| t - Tap
| x - Muted Note
| . - Palm Mute
| + - Harmonics
| / - Slide up
| \ - Slide down
================================================================================
Comments