Less Than Jake - Robots One Humans Zero Chords & Tabs

 

Robots One Humans Zero Chords & Tabs

Less Than Jake Chords & Tabs

Version: 2 Type: Tab 0 ratings
1 star 2 stars 3 stars 4 stars 5 stars
comments

Robots One Humans Zero Tab

               --------------------------------------------
                  Less Than Jake-Robots One, Humans Zero
               --------------------------------------------


Tabbed by: Steven Bryant (elix997)
E-Mail-elix997@hotmail.com
Tuning-EADGBE

Legend:
h-hammer on
p-pull off


Intro:

Guitar One (distortion)

e--------------------------------------------|
b--------------------------------------------|
g-------------4-4-4-4-4-6-6-6-4-2-2-2-2------|        (x4)
d------2-2-2--4-4-4-4-4-6-6-6-4-2-2-2-2------|
a------2-2-2--2-2-2-2-2-4-4-4-2-0-0-0-0------|
e--2p0-0-0-0---------------------------------|

Guitar Two (distortion):

e-----------------------4-------4-2-0--------|
b--4-0-4-4h5p4--------5---0---0--------------|
g--------------4--4h6-------2----------------|
d--------------------------------------------|
a--------------------------------------------|
e--------------------------------------------|

e-4-0-7-0----------------------4-------4-2-0-|
b---------4-0-4-4h5p4--------5---0---0-------|
g---------------------4--4h6-------2---------|
d--------------------------------------------|
a--------------------------------------------|
e--------------------------------------------|

e-4-0-7-0-----------------5--------5-4-0-----|
b---------4-0-4-4h5p4-----5------------------|
g---------------------4-----4-2--2-----------|
d--------------------------------------------|
a--------------------------------------------|
e--------------------------------------------|

Verse:

e-----------------------(4)--(4)(4)----------|
b------------------------4h5--5--5-----------|
g----------6-6-2-2-------4----4--4-----------|
d--6--6-6--6-6-2-2-2-2---4h6--6--6-----------|
a--6--6-6--4-4-0-0-2-2---4----4--4-----------|
e--4--4-4----------0-0-----------------------|

e--------------------------------------------|
b--------------------------------------------|
g--2--2-2--6-6-4-4---------------------------|
d--2--2-2--6-6-4-4-2-2--2-2--2-2--2-2--------|
a--0--0-0--4-4-2-2-2-2--2-2--2-2--2-2--------|
e------------------0-0--0-0--0-0--0-0--------|

e-----------------------(4)--(4)(4)----------|
b------------------------4h5--5--5-----------|
g----------6-6-2-2-------4----4--4-----------|
d--6--6-6--6-6-2-2-2-2---4h6--6--6-----------|
a--6--6-6--4-4-0-0-2-2---4----4--4-----------|
e--4--4-4----------0-0-----------------------|
[ Tab from: http://www.guitartabs.cc/tabs/l/less_than_jake/robots_one_humans_zero_tab_ver_2.html ]
e--------------------------------------------|
b--------------------------------------------|
g--2--2-2--6-6-4-4--7-7-7-7-7-7-7-7----------|
d--2--2-2--6-6-4-4--7-7-7-7-7-7-7-7----------|
a--0--0-0--4-4-2-2--5-5-5-5-5-5-5-5----------|
e--------------------------------------------|
                    ........

Chorus:

e--------------------------------------------|
b--------------------------------------------|
g-------------4-4-4-4-4-6-6-6-4-2-2-2-2------|
d------2-2-2--4-4-4-4-4-6-6-6-4-2-2-2-2------|
a------2-2-2--2-2-2-2-2-4-4-4-2-0-0-0-0------|
e--2p0-0-0-0---------------------------------|

e--------------------------------------------|
b--------------------------------------------|
g-------------4-4-4-4-4-6-6-6-4-2-2-2-2------|
d------2-2-2--4-4-4-4-4-6-6-6-4-2-2-2-2------|
a------2-2-2--2-2-2-2-2-4-4-4-2-0-0-0-0------|
e--2p0-0-0-0---------------------------------|

e--------------------------------------------|
b--------------------------------------------|
g-------------4-4-4-4-4-6-6-6-4-2-2-2-2------|
d------2-2-2--4-4-4-4-4-6-6-6-4-2-2-2-2------|
a------2-2-2--2-2-2-2-2-4-4-4-2-0-0-0-0------|
e--2p0-0-0-0---------------------------------|

e--------------------------------------------|
b--------------------------------------------|
g-------------4-4-4-4-4-2-2-2-2-2-2-2-2------|
d------2-2-2--4-4-4-4-4-2-2-2-2-2-2-2-2------|
a------2-2-2--2-2-2-2-2-0-0-0-0-0-0-0-0------|
e--2p0-0-0-0---------------------------------|

Bridge:

e--------------------------------------------|
b--------------------------------------------|
g--4-4-4-4-6-6-6-4-2-2-2-2-2-2-2-2-----------|
d--4-4-4-4-6-6-6-4-2-2-2-2-2-2-2-2-----------|
a--2-2-2-2-4-4-4-2-0-0-0-0-0-0-0-0-----------|
e--------------------------------------------|

e--------------------------------------------|
b--------------------------------------------|
g----------6-6-6-4-2-2-2-2-2-2-2-2-----------|
d--6-6-6-6-6-6-6-4-2-2-2-2-2-2-2-2-----------|
a--6-6-6-6-4-4-4-2-0-0-0-0-0-0-0-0-----------|
e--4-4-4-4-----------------------------------|

e--------------------------------------------|
b--------------------------------------------|
g--7-7-7-7-7-7-7-7-7-7-7-7-7-7-7-7-----------|
d--7-7-7-7-7-7-7-7-7-7-7-7-7-7-7-7-----------|
a--5-5-5-5-5-5-5-5-5-5-5-5-5-5-5-5-----------|
e--------------------------------------------|
   ...............................

On the last chorus, play the intro lead part.

that about wraps it up...


Questions? Comments?
Hit me up:
E-mail-elix997@hotmail.com
AIM-stevn53091
Comments