Less Than Jake - Rest Of My Life Chords & Tabs

 

Rest Of My Life Chords & Tabs

Less Than Jake Chords & Tabs

Version: 4 Type: Tab

Rest Of My Life Tab

   
Since ltj is nothing like queens of the
age or anything and go to C, that meant to me flat. So when this album came out, i tuned 
the acoustic and came up with this.


Intro:
Eb:-----------------------------------------------------------------|
Bb:-----------------------------------------------------------------|
Gb:-----------------------------------------------------------------| (X2)
Db:-----------------------------------------------------------------|
Ab:-----7-4-7-4---7-4-7-4--------4-5-4-5-4--------------------------|
eb:------------7-----------5-5-7----------5-7-5---------------------|

These are the chords behind the intro, figure out the strumming and timing

      A       E        F#m        D
Eb:--------------------2----------2-----------------------------------|
Bb:---2----------------2----------3-----------------------------------|
Gb:---2-------1--------2----------2-----------------------------------|
Db:---2-------2--------4----------------------------------------------|
Ab:-----------2--------4----------------------------------------------|
eb:--------------------2----------------------------------------------|


Verse: same as intro chords
      A       E        F#m        D
Eb:--------------------2----------2-----------------------------------|
Bb:---2----------------2----------3-----------------------------------|
Gb:---2-------1--------2----------2-----------------------------------|
Db:---2-------2--------4----------------------------------------------|
Ab:-----------2--------4----------------------------------------------|
eb:--------------------2----------------------------------------------|

Chorus:

Eb:-----------------------------------------------------------------|
Bb:-----------------------------------------------------------------|
Gb:---------1-------------7-----------------------------------------|
Db:--7------2------4------7-----------------------------------------|
Ab:--7------2------4------5-----------------------------------------|
eb:--5-------------2------------------------------------------------|

Verse 2: same as verse 1, and intro chords
      A       E        F#m        D
Eb:--------------------2----------2-----------------------------------|
Bb:---2----------------2----------3-----------------------------------|
Gb:---2-------1--------2----------2-----------------------------------|
Db:---2-------2--------4----------------------------------------------|
Ab:-----------2--------4----------------------------------------------|
eb:--------------------2----------------------------------------------|
[ Tab from: http://www.guitartabs.cc/tabs/l/less_than_jake/rest_of_my_life_tab_ver_4.html ]
Chorus:
Eb:-----------------------------------------------------------------|
Bb:-----------------------------------------------------------------|
Gb:---------1-------------7-----------------------------------------|
Db:--7------2------4------7-----------------------------------------|
Ab:--7------2------4------5-----------------------------------------|
eb:--5-------------2------------------------------------------------|

Bridge:
    F#m    Gm   F#m   Gm    F#m    E5?  D5?
Eb:--2-----3-----2-----3-----2-------------------------------------------|
Bb:--2-----3-----2-----3-----2-------------------------------------------|
Gb:--2-----3-----2-----3-----2------9----7-------------------------------|
Db:--4-----5-----4-----5-----4------9----7-------------------------------|
Ab:--4-----5-----4-----5-----4------7----5-------------------------------|
eb:--2-----3-----2-----3-----2-------------------------------------------|


Repeat intro riff, but repeat the second part twice, not the whole thing

Eb:-----------------------------------------------------------------|
Bb:-----------------------------------------------------------------|
Gb:-----------------------------------------------------------------|
Db:------------------------------------(X2)-------------------------|
Ab:-----7-4-7-4---7-4-7-4--------4-5-4-5-4--------------------------|
eb:------------7----------(-5-5-7----------5-7-5-)------------------|

One final chorus:
Eb:-----------------------------------------------------------------|
Bb:-----------------------------------------------------------------|
Gb:---------1-------------7-----------------------------------------|
Db:--7------2------4------7-----------------------------------------|
Ab:--7------2------4------5-----------------------------------------|
eb:--5-------------2------------------------------------------------|

Outro: Same as intro, intro riff with backing chords
Eb:-----------------------------------------------------------------|
Bb:-----------------------------------------------------------------|
Gb:-----------------------------------------------------------------| (X2)
Db:-----------------------------------------------------------------|
Ab:-----7-4-7-4---7-4-7-4--------4-5-4-5-4--------------------------|
eb:------------7-----------5-5-7----------5-7-5---------------------|


      A       E        F#m        D
Eb:--------------------2----------2-----------------------------------|
Bb:---2----------------2----------3-----------------------------------|
Gb:---2-------1--------2----------2-----------------------------------|
Db:---2-------2--------4----------------------------------------------|
Ab:-----------2--------4----------------------------------------------|
eb:--------------------2----------------------------------------------|