Less Than Jake - Portrait Of A Cigarette Smoker At 19 Chords & Tabs

 

Portrait Of A Cigarette Smoker At 19 Chords & Tabs

Less Than Jake Chords & Tabs

Version: 1 Type: Tab 0 ratings
1 star 2 stars 3 stars 4 stars 5 stars
comments

Portrait Of A Cigarette Smoker At 19 Tab

   
-----------------------------------------------------------------
Portrait of a Cigarette Smoker at 19 - Less Than Jake
-----------------------------------------------------------------
Tabbed by:Tom vk	
Email:t_van_kleek@hotmail.com

| / slide up
| \ slide down
| h hammer-on
| p pull-off
| ~ vibrato
| NH harmonic
| x Scratch
| P.M. palm mute (-------| until this line)
| LR Let ring
| when bars are linked with | it means they are played together

I kno it's long but this way you can follow it through without scrolling up or down!
Let me know what you think!

Tuning:EADgbe (standard)

  Bass Intro for guitar
e|---------------------------------------------------------------|
B|---------------------------------------------------------------|
G|---------------------------------------------------------------|
D|---------------------------------------------------------------|
A|------555-555-555-555------------------------------------------|
E|-5-7-----------------------------------------------------------|

  Gtr. 1 (dist)    X2
e|-----------------------|---------------------------------------|
B|-----------------------|---------------------------------------|
G|------777-777-777-777--|---44--5555----------------------------|
D|-7-9--777-777-777-777--|---44--5555--44--5555------------------|
A|-7-9--555-555-555-555--|---22--3333--44--5555------------------|
E|-5-7-------------------|-------------22--3333------------------|

  Verse

  Gtr.1 (dist)
e|----------------------|---------------------|--------------------|
B|----------------------|---------------------|--------------------|
G|------777-777-777-777-|-----777-777-777-777-|-----777-777-777-777|
D|------777-777-777-777-|-----777-777-777-777-|-----777-777-777-777|
A|------555-555-555-555-|-----555-555-555-555-|-----555-555-555-555|
E|-5-7------------------|-5-7-----------------|-5-7----------------|
 |                                                                 |
 |Gtr. 2 (dist) Played over each bar above                         |
e|-----------------------------------------------------------------|
B|-----------------------------------------------------------------|
G|-12-11-12p11----11-12-11-12h14-11-12-11--------------------------|
D|-------------12--------------------------------------------------|
A|-----------------------------------------------------------------|
E|-----------------------------------------------------------------|
  
  Gtr. 1 (dist)
e|---------------------------------------------------------------|
B|---------------------------------------------------------------|
G|-44--5555------------------------------------------------------|
D|-44--5555--44--5555--------------------------------------------|
A|-22--3333--44--5555--------------------------------------------|
E|-----------22--3333--------------------------------------------|
 |                                                               | 
 |Gtr. 2 (dist)                                                  |
e|---------------------------------------------------------------|
B|---------------------------------------------------------------|
G|-44--5555------------------------------------------------------|
D|-44--5555--44--5555--------------------------------------------|
A|-22--3333--44--5555--------------------------------------------|
E|-----------22--3333--------------------------------------------|

  Gtr.1 (dist)
e|----------------------|---------------------|--------------------|
B|----------------------|---------------------|--------------------|
G|------777-777-777-777-|-----777-777-777-777-|-----777-777-777-777|
D|------777-777-777-777-|-----777-777-777-777-|-----777-777-777-777|
A|------555-555-555-555-|-----555-555-555-555-|-----555-555-555-555|
E|-7-9------------------|-7-9-----------------|-7-9----------------|
 |                                                                 |
 |Gtr. 2 (dist) Played over each bar above                         |
e|-----------------------------------------------------------------|
B|-----------------------------------------------------------------|
G|-12-11-12p11----11-12-11-12h14-11-12-11--------------------------|
D|-------------12--------------------------------------------------|
A|-----------------------------------------------------------------|
E|-----------------------------------------------------------------|
  
  Gtr. 1 (dist)
e|---------------------------------------------------------------|
B|---------------------------------------------------------------|
G|-44--5555------------------------------------------------------|
D|-44--5555--44--5555--------------------------------------------|
A|-22--3333--44--5555--------------------------------------------|
E|-----------22--3333--------------------------------------------|
 |                                                               | 
 |Gtr. 2 (dist)                                                  |
e|---------------------------------------------------------------|
B|---------------------------------------------------------------|
G|-44--5555------------------------------------------------------|
D|-44--5555--44--5555--------------------------------------------|
A|-22--3333--44--5555--------------------------------------------|
E|-----------22--3333--------------------------------------------|

  Pre-Chorus  
  
  Gtr.1(dist)
e|---------------------------------------------------------------|
B|-----------------77------77------------------------------------|
G|-5555---------7--77--77--77--5555-----------------------5------|
D|-5555-5x5555--7------77------5555-5x5555-------7------5---5----|
A|-3333-5x5555--5------55------3333-5x5555-----7---7--3----------|
E|------3x3333----------------------3x3333---5-------------------|
 |                                                               |
 |Gtr.2(dist)                               LR        LR         |
e|---------------------------------------------------------------|
B|-----------------77------77------------------------------------|
G|-5555---------7--77--77--77--5555-------------------5----------|
D|-5555-555555--7------77------5555-5x5555---7--------5----------|
A|-3333-555555--5------55------3333-5x5555---7--------3----------|
E|------333333----------------------3x3333---5-------------------|

  Chorus	

  Gtr.1(dist)
e|---------------------------------------------------------------|
B|----77------77-------------------------------------------------|
G|-7--77--77--77--555555-----------------------------------------|
D|-7------77------555555-555555----------------------------------|
A|-5------55------333333-555555----------------------------------|
E|-----------------------333333----------------------------------|
 |                                                               |X4
 |Gtr.2(dist)                                                    |
e|---------------------------------------------------------------|
B|----77------77-------------------------------------------------|
G|-7--77--77--77--555555-----------------------------------------|
D|-7------77------555555-555555----------------------------------|
A|-5------55------333333-555555----------------------------------|
E|-----------------------333333----------------------------------|

 Interlude

  Gtr.1 (dist)
e|---------------------------------------------------------------|
B|---------------------------------------------------------------|
G|------777-777-777-777------777-777-777-777------777-777-777-777|
D|------777-777-777-777------777-777-777-777------777-777-777-777|
A|------555-555-555-555------555-555-555-555------555-555-555-555|
E|-7-9-------------------7-9------------------7-9----------------|
 |                                                               |
 |Gtr.2(dist)                                                    |
e|---------------------------------------------------------------|
B|---------------------------------------------------------------|
G|------777-777-777-777------777-777-777-777------777-777-777-777|
D|------777-777-777-777------777-777-777-777------777-777-777-777|
A|------555-555-555-555------555-555-555-555------555-555-555-555|
E|-7-9-------------------7-9------------------7-9----------------|

  Gtr. 1 (dist)
e|---------------------------------------------------------------|
B|---------------------------------------------------------------|
G|-44--5555------------------------------------------------------|
D|-44--5555--44--5555--------------------------------------------|
A|-22--3333--44--5555--------------------------------------------|
E|-----------22--3333--------------------------------------------|
 |                                                               | 
 |Gtr. 2 (dist)                                                  |
e|---------------------------------------------------------------|
B|---------------------------------------------------------------|
G|-44--5555------------------------------------------------------|
D|-44--5555--44--5555--------------------------------------------|
A|-22--3333--44--5555--------------------------------------------|
E|-----------22--3333--------------------------------------------|
[ Tab from: http://www.guitartabs.cc/tabs/l/less_than_jake/portrait_of_a_cigarette_smoker_at_19_tab.html ]
 Verse
 
 Gtr.1 (dist)
e|----------------------|---------------------|--------------------|
B|----------------------|---------------------|--------------------|
G|------777-777-777-777-|-----777-777-777-777-|-----777-777-777-777|
D|------777-777-777-777-|-----777-777-777-777-|-----777-777-777-777|
A|------555-555-555-555-|-----555-555-555-555-|-----555-555-555-555|
E|-7-9------------------|-7-9-----------------|-7-9----------------|
 |                                                                 |
 |Gtr. 2 (dist) Played over each bar above                         |
e|-----------------------------------------------------------------|
B|-----------------------------------------------------------------|
G|-12-11-12p11----11-12-11-12h14-11-12-11--------------------------|
D|-------------12--------------------------------------------------|
A|-----------------------------------------------------------------|
E|-----------------------------------------------------------------|
  
  Gtr. 1 (dist)
e|---------------------------------------------------------------|
B|---------------------------------------------------------------|
G|-44--5555------------------------------------------------------|
D|-44--5555--44--5555--------------------------------------------|
A|-22--3333--44--5555--------------------------------------------|
E|-----------22--3333--------------------------------------------|
 |                                                               | 
 |Gtr. 2 (dist)                                                  |
e|---------------------------------------------------------------|
B|---------------------------------------------------------------|
G|-44--5555------------------------------------------------------|
D|-44--5555--44--5555--------------------------------------------|
A|-22--3333--44--5555--------------------------------------------|
E|-----------22--3333--------------------------------------------|

 Gtr.1 (dist)
e|----------------------|---------------------|--------------------|
B|----------------------|---------------------|--------------------|
G|------777-777-777-777-|-----777-777-777-777-|-----777-777-777-777|
D|------777-777-777-777-|-----777-777-777-777-|-----777-777-777-777|
A|------555-555-555-555-|-----555-555-555-555-|-----555-555-555-555|
E|-7-9------------------|-7-9-----------------|-7-9----------------|
 |                                                                 |
 |Gtr. 2 (dist) Played over each bar above                         |
e|-----------------------------------------------------------------|
B|-----------------------------------------------------------------|
G|-12-11-12p11----11-12-11-12h14-11-12-11--------------------------|
D|-------------12--------------------------------------------------|
A|-----------------------------------------------------------------|
E|-----------------------------------------------------------------|

  Gtr. 1 (dist)
e|---------------------------------------------------------------|
B|---------------------------------------------------------------|
G|-44--5555------------------------------------------------------|
D|-44--5555--44--5555--------------------------------------------|
A|-22--3333--44--5555--------------------------------------------|
E|-----------22--3333--------------------------------------------|
 |                                                               | 
 |Gtr. 2 (dist)                                                  |
e|---------------------------------------------------------------|
B|---------------------------------------------------------------|
G|-44--5555------------------------------------------------------|
D|-44--5555--44--5555--------------------------------------------|
A|-22--3333--44--5555--------------------------------------------|
E|-----------22--3333--------------------------------------------|

 Pre-Chorus  
  
  Gtr.1(dist)
e|---------------------------------------------------------------|
B|-----------------77------77------------------------------------|
G|-5555---------7--77--77--77--5555-----------------------5------|
D|-5555-5x5555--7------77------5555-5x5555-------7------5---5----|
A|-3333-5x5555--5------55------3333-5x5555-----7---7--3----------|
E|------3x3333----------------------3x3333---5-------------------|
 |                                                               |
 |Gtr.2(dist)                               LR        LR         |
e|---------------------------------------------------------------|
B|-----------------77------77------------------------------------|
G|-5555---------7--77--77--77--5555-------------------5----------|
D|-5555-555555--7------77------5555-5x5555---7--------5----------|
A|-3333-555555--5------55------3333-5x5555---7--------3----------|
E|------333333----------------------3x3333---5-------------------|

 Chorus	

  Gtr.1(dist)
e|---------------------------------------------------------------|
B|----77------77-------------------------------------------------|
G|-7--77--77--77--555555-----------------------------------------|
D|-7------77------555555-555555----------------------------------|
A|-5------55------333333-555555----------------------------------|
E|-----------------------333333----------------------------------|
 |                                                               |X4
 |Gtr.2(dist)                                                    |
e|---------------------------------------------------------------|
B|----77------77-------------------------------------------------|
G|-7--77--77--77--555555-----------------------------------------|
D|-7------77------555555-555555----------------------------------|
A|-5------55------333333-555555----------------------------------|
E|-----------------------333333----------------------------------|

  Solo (had to split rhythm into bars)
 
  Gtr.1(dist)
e|----------------|----------------|-----------------------------|
B|----------------|----------------|-----------------------------|
G|-777777--555555-|----------------|-777777-555555---------------|
D|-777777--555555-|-555555--777777-|-777777-555555---------------|
A|-555555--333333-|-555555--777777-|-555555-333333---------------|
E|----------------|-333333--555555-|-----------------------------|
 |                                                               |
 |Gtr.2(dist) Played over each bar above                         |
e|---------------------------------------------------------------|
B|---------------------------------------------------------------|
G|-12-11-12p11----11-12-11-12h14-11-12-11h-(hammer back onto 12)-|
D|-------------12------------------------------------------------|
A|---------------------------------------------------------------|
E|---------------------------------------------------------------|
 
  Solo cont.

  Gtr.1(dist)
e|---------------------------------------------------------------|
B|---------------------------------------------------------------|
G|-------------------7-------------------------------------------|
D|-5-5---7-7---5-5---7---x-xxxx----------------------------------|
A|-5-5---7-7---5-5---5---x-xxxx----------------------------------|
E|-3-3---5-5---3-3-------x-xxxx----------------------------------|
 |                                                               |
 |Gtr.2(dist)            NH                                      |
e|---------------------------------------------------------------|
B|-----------------------7---------------------------------------|
G|----11----12----11-14--7---------------------------------------|
D|-12-12-12-12-12-12-12--7---------------------------------------|
A|---------------------------------------------------------------|
E|---------------------------------------------------------------|

 Interlude
  
  Gtr.1(dist)
e|---------------------------------------------------------------|
B|---------------------------------------------------------------|
G|777777-55555555-----------------777777-55555555----------------|
D|777777-55555555-555555-77777777-777777-55555555-555555-777-----|
A|555555-33333333-555555-77777777-555555-33333333-555555-777-----|
E|----------------333333-55555555-----------------333333-555-----|
 |                                                               |
 |Gtr.2(dist)                                                    |
e|---------------------------------------------------------------|
B|---------------------------------------------------------------|
G|777777-55555555-----------------777777-55555555----------------|
D|777777-55555555-555555-77777777-777777-55555555-555555-777xxxx-|
A|555555-33333333-555555-77777777-555555-33333333-555555-777xxxx-|
E|----------------333333-55555555-----------------333333-555xxxx-|

  Pre-Chorus  
   
  Gtr.1(dist)                                this time it's  X2
e|------------------------------------------|--------------------|
B|-----------------77------77---------------|--------------------|
G|-5555---------7--77--77--77--5555---------|--------------5-----|
D|-5555-5x5555--7------77------5555-5x5555--|-----7------5---5---|
A|-3333-5x5555--5------55------3333-5x5555--|---7---7--3---------|
E|------3x3333----------------------3x3333--|-5------------------|
 |                                          |                    |
 |Gtr.2(dist)                               |LR        LR        |
e|------------------------------------------|--------------------|
B|-----------------77------77---------------|--------------------|
G|-5555---------7--77--77--77--5555---------|----------5---------|
D|-5555-555555--7------77------5555-5x5555--|-7--------5---------|
A|-3333-555555--5------55------3333-5x5555--|-7--------3---------|
E|------333333----------------------3x3333--|-5------------------|

  Chorus	

  Gtr.1(dist)
e|---------------------------------------------------------------|
B|----77------77-------------------------------------------------|
G|-7--77--77--77--555555-----------------------------------------|
D|-7------77------555555-555555----------------------------------|
A|-5------55------333333-555555----------------------------------|
E|-----------------------333333----------------------------------|
 |                                                               |X4
 |Gtr.2(dist)                                                    |
e|---------------------------------------------------------------|
B|----77------77-------------------------------------------------|
G|-7--77--77--77--555555-----------------------------------------|
D|-7------77------555555-555555----------------------------------|
A|-5------55------333333-555555----------------------------------|
E|-----------------------333333----------------------------------|

  Outro (this part is played slower)

  Gtr.1(dist)
e|----------------------------------------------------------------------|
B|----------------------------------------------------------------------|
G|7-7-7-77-5-5-5-55-------------------7-7-7-77-5-5-5-55-----------------|
D|7-7-7-77-5-5-5-55-5-5-5-55-7-7-7-77-7-7-7-77-5-5-5-55-5-5-5-55-777----|
A|5-5-5-55-3-3-3-33-5-5-5-55-7-7-7-77-5-5-5-55-3-3-3-33-5-5-5-55-777----|
E|------------------3-3-3-33-5-5-5-55-------------------3-3-3-33-555----|
 |                                                                      |
 |Gtr.2(dist)                                                           |
e|----------------------------------------------------------------------|
B|----------------------------------------------------------------------|
G|7-7-7-77-5-5-5-55-------------------7-7-7-77-5-5-5-55-----------------|
D|7-7-7-77-5-5-5-55-5-5-5-55-7-7-7-77-7-7-7-77-5-5-5-55-5-5-5-55-777-xxx|
A|5-5-5-55-3-3-3-33-5-5-5-55-7-7-7-77-5-5-5-55-3-3-3-33-5-5-5-55-777-xxx|
E|------------------3-3-3-33-5-5-5-55-------------------3-3-3-33-555-xxx|


  Then back to normal speed

  Gtr.1(dist)                     LR
e|---------------------------------------------------------------|
B|---------------------------------------------------------------|
G|777777-55555555-----------------7------------------------------|
D|777777-55555555-555555-77777777-7------------------------------|
A|555555-33333333-555555-77777777-5------------------------------|
E|----------------333333-55555555--------------------------------|
 |                                                               |
 |Gtr.2(dist)                     LR                             |
e|---------------------------------------------------------------|
B|---------------------------------------------------------------|
G|777777-55555555-----------------7------------------------------|
D|777777-55555555-555555-77777777-7------------------------------|
A|555555-33333333-555555-77777777-5------------------------------|
E|----------------333333-55555555--------------------------------|
Comments