Less Than Jake - Pete Jackson Is Getting Married Chords & Tabs

 

Pete Jackson Is Getting Married Chords & Tabs

Less Than Jake Chords & Tabs

Version: 1 Type: Bass Tab 0 ratings
1 star 2 stars 3 stars 4 stars 5 stars
comments

Pete Jackson Is Getting Married Bass Tab

------------------------------------------------------------------------------- 
PETE JACKSON IS GETTING MARRIED - Less Than Jake 
------------------------------------------------------------------------------- 

Intro/Verse/Outro 
G|---------------------------------------------------------------------------| 
D|---------------------------------------------------------------------------| 
A|--------------1111---------------3333--------------------------------------| 
E|-111111111111-------333333333333-------------------------------------------| 
(Note: During the outro, it's the same notes, but Roger plays a timing slightly 
different than the guitar and verse. Listen closely and you'll hear it's 
there.) 
[ Tab from: http://www.guitartabs.cc/tabs/l/less_than_jake/pete_jackson_is_getting_married_btab.html ]
Chorus 
G|---------------------------------------------------------------------------| 
D|--------------3---33-----------------------33-2-0--------------------------| 
A|--1111--3333---------(2x)-------1111--3333---------------------------------| 
E|---------------------------------------------------------------------------| 

Awesome Bridge Thing (Na na na na na Part) 
G|---------------------------------------------------------------------------| 
D|--33-----------------------------------------------------------------------| 
A|-----333--5555-------44--3333----------------------------------------------| 
E|-----------------44--------------------------------------------------------| 

Enjoy, By Stu.

------------------------------------------------------------------------------- 


Comments