Less Than Jake - One Last Cigarette Chords & Tabs

 

One Last Cigarette Chords & Tabs

Less Than Jake Chords & Tabs

Version: 1 Type: Bass Tab 0 ratings
1 star 2 stars 3 stars 4 stars 5 stars
comments

One Last Cigarette Bass Tab

ONE LAST CIGARETTE
LESS THAN JAKE
PEZ CORE

-----------------------------------5-4---------
------2-------532-----3223-3--------5------
-333--30---------3---------------------5-3-
------------3---------1-------------------------
I CHECKED THE TIME.......
[ Tab from: http://www.guitartabs.cc/tabs/l/less_than_jake/one_last_cigarette_btab.html ]
---------------------------------------------
------2---------532----------------232--
-333---30----------3------3-3-3--------
--------------3----------1-1----------------
AS I TRIED.......

THE REST OF THE CHORDS ARE FROM SHORT
ON IDEAS
ENJOY!!!!!
FIGURED OUT AND TRANSCRIBED BY:
Steve Martin

Comments