Less Than Jake - My Money Is On The Long Shot Chords & Tabs

 

My Money Is On The Long Shot Chords & Tabs

Less Than Jake Chords & Tabs

Version: 1 Type: Bass Tab 0 ratings
1 star 2 stars 3 stars 4 stars 5 stars
comments

My Money Is On The Long Shot Bass Tab

   
Band: Less Than Jake
Song: My money is on the long shot
Album: See the light
Tuning: Standard (G, D, A, E)

Key:
x - mute string
p - pull off
h - hammer on
/ - slide up
~ - let ring

There are a few points in the song where I couldn't hear the bass too well, but
tabbed as close as I could get

Verse part 1                            x2  1,                   2
G|-----------------------------------------|--------------------|----------------------|
D|-----3---6--4p3--------6--4p3-4---4---/6-|-4p34---4-----------|-4-3h44---4-----------|
A|-x-4---4-------4---3------------2---2----|------2---2---0-1-2-|--------2---2---0-1-2-|
E|-----------------4---4-------------------|------------2-------|--------------2-------|

Verse part 2 (faster) x1
G|-----------------------------------------------------------------------|
D|----3~--4-3-3-------6~--6-4-3h4p3-----4~--/6-4-3h4p3-----4~------------|
A|-444--44-----6-4-----------------4-222--22----------4-222--222--001122-|
E|-----------------444--44--------------------------------------22-------|

Verse part 3 x1
G|-----------------------------------------------------------------------|
D|----3~---4433--------6~--6-64433------4~--/6-6443344----4~-------4~----|
A|-444--444----6644---------------44-222--22-----------222--222----------|
E|------------------444--44-------------------------------------222--222-|

Pre Chorus x1
G|--------------------------------------------------------------------|
D|-----------------------------------------3------6-------3-------6---|
A|-------------------1-1-111-4-44-4444----------------1-1---1-4-4---4-|
E|-1-1-111-4-44-4444-------------------1-1--1-4-4---4-----------------|

Chorus           x3 1,                                                        2,
G|-----------------|---------------------------------------------------------|----------------|
D|-----------------|-4-433----------------------4-4-3h4p3--4-3h4p3-----------|-x43------------|
A|---3-4-6---3-4-6-|------6644-4-334466---3-4-6----------4--------4-464343-3-|----6-4-x43-4-6-|
E|-4-------4-------|--------------------4---------------------------------6--|----------------|
  3
G|-----------------------------------|
D|-----3-------6------------/6666666-|
A|-1-1---1-4-4---4---3-4-6-----------|
E|-----------------4-----------------|
[ Tab from: http://www.guitartabs.cc/tabs/l/less_than_jake/my_money_is_on_the_long_shot_btab.html ]
Verse 2 part 1 x1
G|-------------------------------------------------------------------|
D|-----3---3h4--4-3p1--------6--4-3h4----4---/6-4-3h44---4-----------|
A|-x-4---4-----------4---3-----------4-2---2-----------2---2---0-1-2-|
E|---------------------4---4---------------------------------2-------|

G------------------------------------------------------------------------|
D-----3---x-4-3h4-4p3p1--------/6-4-3h4p3----4---/6-4-3h44---4-----------|
A-4-4---4--------------4---3-------------4-2---2-----------2---2---0-1-2-|
E------------------------4---4-----------------------------------2-------|

Verse part 3 x1, Pre Chorus x1

Chorus x2 play the 1st ending from the first chorus 2nd, and a different 1st ending:
G|-----------------------------------------------------|
D|-x43--------------------4-4-3h4p3--4-3h4p3-----------|
A|----6-4-x43-4-6---3-4-6----------4--------4-464343-3-|
E|----------------4---------------------------------4--|

Chorus 2                 x2 1,                                            2
G|--------------------------|---------------------------------------------|------------------------|
D|--------------------------|-----------x64-33-4-4-33----44444433---------|---3-4-6-666666664433---|
A|--------------------------|-4-44-4444-------6------6644--------44334466-|-4-------------------44-|
E|-4-4-4444-44-4444-2-2-222-|---------------------------------------------|------------------------|

G-------------------|
D-------------------|
A-11111111-44444444-|
E-------------------|

Bridge                               x3 2
G|-------------------------------------|-------------------------------------|
D|-------------------------------------|-------------------------------------|
A|-6-6-666-9-99-9999-------------------|-6-6-666-4-44-4444-3-3-333-2-22-2222-|
E|-------------------4-4-444-6-66-6666-|-------------------------------------|

Outro 1 x2
G|---------------------------------------------------------------------|
D|---------------------------------------------------------------------|
A|-2-2-2222-22-2222------------------6-6-6666-66-6666------------------|
E|------------------4-4-4444-44-4444------------------2-2-2222-22-2222-|

Outro 2 x1
G|----------------------------------------------------------------------------------------------|
D|-----4-4-4-4/6-4-----6-6-4-4h66-----4-43-3h44-3h4p3-3-----------------4-4-4/6-4---------------|
A|-2-2----------------------------6-6----------------6-6464343-3----2-2---------------44444-6~~-|
E|-----------------4-4----------------------------------------6-646---------------4-4-----------|
Comments