Less Than Jake - Motto Chords & Tabs

 

Motto Chords & Tabs

Less Than Jake Chords & Tabs

Version: 1 Type: Tab 0 ratings
1 star 2 stars 3 stars 4 stars 5 stars
comments

Motto Tab

   
Less Than Jake - Motto
Tabbed by: Alex Heath
Taken from www.TabebrsTemple.com.... more less than jake tabs here!

           (riff A)
e:-----------------------11-15-11-15-----------------------------
B:---------------------------------------------------------------
G:---------------------------------------------------------------
D:0-4-0-4-0-4-0-4-0-4-0-4----------------------------------------
A:---------------------------------------------------------------
E:---------------------------------------------------------------

  after about 11th or 12th time play
                              ( verse riff, speeds up a bit for pre chorus) 
e:---------------------------------------------------------------
B:---------------------------------------------------------------
G:-----------------------------(7--4----5-7--4---)---------------
D:0-4-0-4-0-4-0-4-0-4-0-4-22222(7--4-5--5-7--4-5-)---------------
A:-----------------------------(5--2-5--3-5--2-5-)---------------
E:-----------------------------(-----3---------3-)---------------
[ Tab from: http://www.guitartabs.cc/tabs/l/less_than_jake/motto_tab.html ]
( chorus )
e:---------------------------------------------------------------
B:---------------------------------------------------------------
G:----------44-677777--------------------------------------------
D:777x77777-44-677777--------------------------------------------
A:777x77777-22-455555--------------------------------------------
E:555x55555------------------------------------------------------

riff A a few times then
e:---------------------------------------------------------------
B:---------------------------------------------------------------
G:---------------------------------------------------------------
D:0-4-0-4-0-4-0-4-0-4-0-4-2--------------------------------------
A:---------------------------------------------------------------
E:---------------------------------------------------------------

solo (completely wrong but with a lot of distortion no-one can tell)
e:---------------------------------------------------------------
B:----------88887777-----------------88887777--------------------
G:7787107877----------x2-----------------------------------------
D:-----------------------xxxx77xxxx77----------------------------
A:-----------------------xxxx77xxxx77----------------------------
E:-----------------------xxxx55xxxx55----------------------------

sir p!
Comments