Less Than Jake - Motown Never Sounded So Good Chords & Tabs

 

Motown Never Sounded So Good Chords & Tabs

Less Than Jake Chords & Tabs

Version: 1 Type: Bass Tab 0 ratings
1 star 2 stars 3 stars 4 stars 5 stars
comments

Motown Never Sounded So Good Bass Tab

   
----------------------------------------------------------------------------
			     SONG NAME - Band Name
----------------------------------------------------------------------------

Tabbed By : Jeremy Jerk
e-mail: jr_noidearockz@yahoo.com

Tuning:Standard

Verse:
So you say...
G|-------------------------------------------------------------------------|
D|13~13---13-11-10---------------------------------------------------------|
A|-----------------13-11~11~11---11-10---------10\---11-10---------11~11---|
E|-------------------------------------13-11-11------------13-11-11--------|
[ Tab from: http://www.guitartabs.cc/tabs/l/less_than_jake/motown_never_sounded_so_good_btab.html ]
G|-------------------------------------------------------------------------|
D|11-11-10~--11~11--(repeat to the beginning)------------------------------|
A|--------~13--------------------------------------------------------------|
E|-------------------------------------------------------------------------|
well i say to myself...
G|------------------------------------------13-----------------------------|
D|11-11-11-11-------------13-13-13-13-13-13----13-11-11-11-11--------------|
A|------------11-11-11-11-------------------------------------11-11-11-11--|
E|-------------------------------------------------------------------------|
feeling like i'm half alive...
G|-------------------------------------------------------------------------|
D|-------------------------------------------------------------------------|
A|-------------------------------------------------------------------------|
E|7-7-7-7-7-7-7-7-9-9-9-9-9-9-9-9------------------------------------------|
Chorus:
i cant' get enough...
G|-------------------------------------------------------------------------|
D|-------------------------------------------------------------------------|
A|-------------------------------------------------------------------------|
E|---------------10-10-10-10-10-10-10-10-8-8-8-8-8-8-8-8-1-1-1-1-1-1-3~~4--|

G|-------------------------------------------------------------------------|
D|-------------------------------------------------------------------------|
A|-------------------------------------------------------------------------|
E|4-4-4-9-9-9-9--(repeat twice)--------------------------------------------|

That's all the infromation i got...

| /  slide up
| \  slide down
| h  hammer-on
| p  pull-off
| ~  vibrato
| +  harmonic
| x  Mute note
============================================================================
Comments