Less Than Jake - Malt Liquor Tastes Better Chords & Tabs

 

Malt Liquor Tastes Better Chords & Tabs

Less Than Jake Chords & Tabs

Version: 1 Type: Tab 0 ratings
1 star 2 stars 3 stars 4 stars 5 stars
comments

Malt Liquor Tastes Better Tab

   
MALT LIQUOR TASTES BETTER WHEN YOU'VE GOT PROBLEMS - Less Than Jake

By: Dan Kloza (jonkay@monmouth.com)
visit my site at members.nbci.com/LTJDan

INTRO (x3) (Chords w/ P over them = Palm mute that chord)     
e|--------------------------2-2-2-----------------------------|
B|---P-P--------------------3-3-3--P--------------------------|
G|-7-7-7-----P-P------------2-2-2--7-7---P-P-P--P-----5-5-4-0-|
D|-7-7-7---7-7-7-------------------7-7-7-7-7-7--5-5---5-------|
A|-5-5-5---7-7-7-------------------5-5-7-7-7-7--5-5-----------|
E|---------5-5-5----5h7p5-3------------5-5-5-5--3-3-----------|

VERSE STRUCTURE:
VersePT1 (x1)
VersePT2 (x2)
VersePT3 (x1)
Play this twice then goes into chorus.

Verse PT1 		    PT2
e|-------------------------|-5x5x5x5x5x5x5x5-5x5x5x5x5x5x5x5x-|
B|-------------------------|-7x7x7x7x7x7x7x7-5x5x5x5x5x5x5x5x-|
G|-7-7-7-------------------|-7x7x7x7x7x7x7x7-6x6x6x6x6x6x6x6x-|
D|-7-7-7-7-7-7-5-5-5-5-5-5-|-5x5x5x5x5x5x5x5-7x7x7x7x7x7x7x7x-|
A|-5-5-5-7-7-7-5-5-5-5-5-5-|-5x5x5x5x5x5x5x5-7x7x7x7x7x7x7x7x-|
E|-------5-5-5-3-3-3-3-3-3-|-5x5x5x5x5x5x5x5-5x5x5x5x5x5x5x5x-|
And I've been so...	     That I only...
[ Tab from: http://www.guitartabs.cc/tabs/l/less_than_jake/malt_liquor_tastes_better_tab.html ]
Verse PT3
e|---------------------|
B|---------------------|
G|-7-7-----------------|
D|-7-7-7-7-7-5-5-5-5-5-|
A|-5-5-7-7-7-5-5-5-5-5-|
E|-----5-5-5-3-3-3-3-3-|
Just simply trying...

Chorus (x2)  (Chords w/ P over them = Palm mute that chord)     
e|--------------------------2-2-2-----------------------------|
B|---P-P--------------------3-3-3--P--------------------------|
G|-7-7-7-----P-P------------2-2-2--7-7---P-P-P--P-----5-5-4-0-|
D|-7-7-7---7-7-7-------------------7-7-7-7-7-7--5-5---5-------|
A|-5-5-5---7-7-7-------------------5-5-7-7-7-7--5-5-----------|
E|---------5-5-5----5h7p5-3------------5-5-5-5--3-3-----------|
So I say...

PT1 (x1)   <--Play 
PT2 (x2)   <--  
PT3 (x1)   <--Twice 
Chorus (x2)

Interlude (x4) Play this all palm muted w/ clean guitar.
e|--------------------------------------------------------------------|
B|--------------------------------------------------------------------|
G|--7-7-7-7-7-7-7-7---------------------------------------------------|
D|--7-7-7-7-7-7-7-7-7-7-7-7-7-7-7-7-5-5-5-5-5-5-5-5-5-5-5-5-5-5-5-5---|
A|--5-5-5-5-5-5-5-5-7-7-7-7-7-7-7-7-5-5-5-5-5-5-5-5-5-5-5-5-5-5-5-5---|
E|------------------5-5-5-5-5-5-5-5-3-3-3-3-3-3-3-3-3-3-3-3-3-3-3-3---|
As I stumble home....

Then...
e|---------|
B|---------|
G|---------|
D|-5-5-----|
A|-5-5-----|
E|-3-3-----|

VersePT1 (x1)    
VersePT2 (x2)   
VersePT3 (x1)
Chorus (x2)
VersePT1 (x2)
Comments