Less Than Jake - Magnetic North Chords & Tabs

 

Magnetic North Chords & Tabs

Less Than Jake Chords & Tabs

Version: 1 Type: Tab 1 rating
1 star 2 stars 3 stars 4 stars 5 stars
comments

Magnetic North Tab

Artist: Less Than Jake
Song:Magnetic North
Album: Borders and Boundaries
Tabed By: Stafford
E-mail: punk6strings@excite.com

Intro
e----3-------3-2-0-----------------------------------------------------|
B--3---3-5-3-----------------------------------------------------------|
G----------------------------------------------------------------------|
D----------------------------------------------------------------------|
A----------------------------------------------------------------------|
E----------------------------------------------------------------------|


e------|------|------|-------------------------------------------------|
B------|------|------|-------------------------------------------------|
G-5----|------|------|-------------------------------------------------|
D-5----|-5----|-7----|-------------------------------------------------|
A-3-X8-|-5----|-7----|-------------------------------------------------|
E------|-3-X8-|-5-X8-|-------------------------------------------------|
[ Tab from: http://www.guitartabs.cc/tabs/l/less_than_jake/magnetic_north_tab.html ]
Verse- Play this part half way through each verse
e----------------------------------------------------------------------|
B----------------------------------------------------------------------|
G-5-5-5---5-5-5---5-5-5---5-5-5---------5-5-5--------------------------|
D-5-5-5---5-5-5---5-5-5---5-5-5--5-5-5--5-5-5--------------------------|
A-3-3-3---3-3-3---3-3-3---3-3-3--5-5-5--3-3-3--------------------------|
E--------------------------------3-3-3---------------------------------|

Refrain
e------|------|------|------|------|------|----------------------------|
B------|------|------|------|------|------|----------------------------|
G-5----|------|------|-5----|------|-5----|-5-5-xxx-5-5----------------|
D-5----|-5----|-7----|-5----|-5----|-5----|-5-5-xxx-5-5----------------|
A-3-X8-|-5----|-7----|-3-X8-|-5----|-3-X4-|-3-3-xxx-3-3----------------|
E------|-3-X4-|-5-X4-|------|-3-X4-|------|----------------------------|
					   play this ^ at end a few times
Middle Part
e-------|------|------|-------------------------------------------------|
B-------|------|------|-------------------------------------------------|
G--5----|------|------|-------------------------------------------------|
D--5----|-5----|-2----|-------------------------------------------------|
A--3-X8-|-5----|-2----|-------------------------------------------------|
E-------|-3-X4-|-0-X4-|-------------------------------------------------|

outro is same as the middle part
Comments