Less Than Jake - Magnetic North Chords & Tabs

 

Magnetic North Chords & Tabs

Less Than Jake Chords & Tabs

Version: 3 Type: Bass Tab 0 ratings
1 star 2 stars 3 stars 4 stars 5 stars
comments

Magnetic North Bass Tab

Less Than Jake- Magnetic North

Tabbed By : Big Dave
e-mail: ihatehearsay@hotmail.com

Tuning:EADG

Intro x6
G|-----------5-----5-------|
D|----5--5-3---5-----------|
A|-3-------------5---5-----|
E|-------------------------|

Pre - Verse x4 
G|----------------------------------|
D|----------------------------------|
A|-3-3-3-3-3-3-3-3---------1-1-1-1--|
E|-----------------1-1-1-1----------|

Verse x4
G:----------------------|
D:----------------------|
A:--33--33-------11--1--|
E:---------11--1--------|

Chorus x4
G|----------------------------------|
D|----------------------------------|
A|-3-3-3-3-3-3-3-3---------1-1-1-1--|
E|-----------------1-1-1-1----------|

Chorus Ending
G|-------------|
D|-------------|
A|-5-7--8------|
E|-------------|
[ Tab from: http://www.guitartabs.cc/tabs/l/less_than_jake/magnetic_north_btab_ver_3.html ]
Pre - Verse x4 
G|----------------------------------|
D|----------------------------------|
A|-3-3-3-3-3-3-3-3---------1-1-1-1--|
E|-----------------1-1-1-1----------|

Verse x4
G:----------------------|
D:----------------------|
A:--33--33-------11--1--|
E:---------11--1--------|

Chorus x4
G|----------------------------------|
D|----------------------------------|
A|-3-3-3-3-3-3-3-3---------1-1-1-1--|
E|-----------------1-1-1-1----------|

Chorus Ending
G|-------------|
D|-------------|
A|-5-7--8------|
E|-------------|

Bridge x6
G|----------------------------------|
D|---------------------------3-3-3-3|
A|-3-3-3-3--3-3-3-3--1-1-1-1--------|
E|----------------------------------|

Chorus x4
G|----------------------------------|
D|----------------------------------|
A|-3-3-3-3-3-3-3-3---------1-1-1-1--|
E|-----------------1-1-1-1----------|

Outro x4
G|----------------------------------|
D|---------------------------3-3-3-3|
A|-3-3-3-3--3-3-3-3--1-1-1-1--------|
E|----------------------------------|

End On
G|----|
D|----|
A|-3--|
E|----|
Comments