Less Than Jake - Look What Happened Chords & Tabs

 

Look What Happened Chords & Tabs

Less Than Jake Chords & Tabs

Version: 2 Type: Tab 0 ratings
1 star 2 stars 3 stars 4 stars 5 stars
comments

Look What Happened Tab

#----------------------------------PLEASE NOTE--------------------------------#
#This file is the author's own work and represents their interpretation of the#
#song. You may only use this file for private study, scholarship, or research.#
#-----------------------------------------------------------------------------#
#-- File created with Instab - http://www.pconline.com/~smcarey/instab.html --#
#-----------------------------------------------------------------------------#
[ Tab from: http://www.guitartabs.cc/tabs/l/less_than_jake/look_what_happened_tab_ver_2.html ]
Author/Artist: less than jake
Title: look what happened (anthem version)
Transcribed by: paul
Email: aint_life_a_bitc_h@hotmail.com
-|--------------------------------------------------------|------------------
-|--------------------------------------------------------|------------------
-|--------------------------------------------------------|------------------
-|----2--2-----2--------2-------2-----2----------2-----2--|------------------
-|---------0-0--------------------------0-----00----------|------------------
-|-00-------------4/55------44-----22------44------44-----|------------------
    bass intro(for a guitar)                                                  

-|------------------------------------|------------------------------|-------
-|------------------------------------|------------------------------|-------
-|------------------44444444-22222222-|--9---------------------------|-------
-|2222222222222222--44444444-22222222-|--9-x8---9-7--4-----777-999---|-------
-|2222222222222220--22222222-00000000-|--7------9-7--4-x8--777-999---|-------
-|0000000000000000--------------------|---------7-5--2-----555-777---|-------
            verse all palm muted                                              

-|-----|-----------------------------------|---------------------------------
-|-----|-----------------------------------|---------------------------------
-|-9---|-------------------9999989---------|---------------------------------
-|-9---|-2222-----999999---9999999---------|---------------------------------
-|-7---|-2222-----999999-------------------|---------------------------------
-|-0---|-0000-----777777-------------------|---------------------------------
   middle....     ......         end
Comments