Less Than Jake - Liquor Store Chords & Tabs

 

Liquor Store Chords & Tabs

Less Than Jake Chords & Tabs

Version: 3 Type: Bass Tab 0 ratings
1 star 2 stars 3 stars 4 stars 5 stars
comments

Liquor Store Bass Tab

   
LESS THAN JAKE - LIQUOR STORE

Guitar on It's own

G|---------------------|
D|---------------------|
A|---------------6-7-6-|
E|-7---7---7---7-------|

G|------------------------------------|
D|---------------------6--------------|
A|---6-9-6-7-6-4-6-4-4---4--4-4-7-6-4-| x3
E|-7----------------------------------|

G|---------------------------|
D|---------------------6-----|
A|---6-9-6-7-6-4-6-4-4---4-7-|
E|-7-------------------------|

G|----------------------------------------|
D|----------------------------------------|
A|--------7--7-7-7-7-7--------7-7-7-7-7-7-| x3
E|-7--7-7--------------5--5-5-------------|

G|---------------------------------------|
D|---------------------------------------|
A|--------7--7-7-7-7-7--------7----------|
E|-7--7-7--------------5--5-5----------0-|

G|---------------------------------|
D|---------------------------------|
A|---6-9-6-7-6-4-6-4-4-4-4-7-6-4-6-|
E|-7-------------------------------|

G|---------------------------------|
D|---------------------------------|
A|---6-9-6-7-6-4-6-4-4-4-4-7-7-7-7-|
E|-7-------------------------------|

G|---------------------------------|
D|---------------------------------|
A|---6-9-6-7-6-4-6-4-4-4-4-7-6-4-6-| x3
E|-7-------------------------------|

G|---------------------------------|
D|---------------------------------|
A|---6-9-6-7-6-4-6-4-4-4-4-7-7-7-7-|
E|-7-------------------------------|

G|----------------------------------------|
D|----------------------------------------|
A|--------7--7-7-7-7-7--------7-7-7-7-7-7-| x3
E|-7--7-7--------------5--5-5-------------|

G|---------------------------------------|
D|---------------------------------------|
A|--------7--7-7-7-7-7--------7----------|
E|-7--7-7--------------5--5-5----------0-|
[ Tab from: http://www.guitartabs.cc/tabs/l/less_than_jake/liquor_store_btab_ver_3.html ]
G|------------------------------------|
D|---------------------6--------------|
A|---6-9-6-7-6-4-6-4-4---4--4-4-7-6-4-| 
E|-7----------------------------------|

G|---------------------------------|
D|---------------------------------|
A|---6-9-6-7-6-4-6-4-4-4-4-7-7-7-7-|
E|-7-------------------------------|

G|------------------------------------|
D|---------------------6--------------|
A|---6-9-6-7-6-4-6-4-4---4--4-4-7-6-4-| x2 
E|-7----------------------------------|

G|-----------------------------------|
D|---------------------6---6h7p6-----|
A|---6-9-6-7-6-4-6-4-4---4-------7-6-|
E|-7---------------------------------|

G|----------------------------------|
D|---------------------6------------|
A|---6-9-6-7-6-4-6-4-4---4--7-7-7-7-|
E|-7--------------------------------|

brass on It's own

G|-----------------------------------------------------|
D|-----------------------------------------------------|
A|---------7---7h9-7-6-----------------7-7-7-7-7-7-7-7-|
E|-7-----7-------------7-5-5-5-5-5-5-5-----------------|

G|----------------------------------------|
D|----------------------------------------|
A|--------7--7-7-7-7-7--------7-7-7-7-7-7-| x3
E|-7--7-7--------------5--5-5-------------|

G|---------------------------------------|
D|---------------------------------------|
A|--------7--7-7-7-7-7--------7----------|
E|-7--7-7--------------5--5-5----------0-|

G|---------------------------------|
D|---------------------------------|
A|---6-9-6-7-6-4-6-4-4-4-4-7-6-4-6-| 
E|-7-------------------------------|

G|---------------------------------|
D|---------------------------------|
A|---6-9-6-7-6-4-6-4-4-4-4-7-7-7-7-|
E|-7-------------------------------|

G|---------------------------------------|
D|---------------------------------------|
A|---------7-7-7-7-7-7---------7-7-7-7-7-| x4
E|-7-7-7-7-------------9-9-9-9-----------|

G|---|
D|---|
A|---|
E|-7-|
Comments