Less Than Jake - Liquor Store Chords & Tabs

 

Liquor Store Chords & Tabs

Less Than Jake Chords & Tabs

Version: 1 Type: Bass Tab 0 ratings
1 star 2 stars 3 stars 4 stars 5 stars
comments

Liquor Store Bass Tab

Song: Liquore Store
Band: Less Than Jake
Album: Pezcore
tabbed by: J-F from Montreal

Intro

g:-----------------------------------------------------
d:-----------------------------------------------------
a:---------------------------6-7-6---------------------
e:-----7------7------7------7--------------------------

Verse

g:-----------------------------------------------------
d:----------------------66-----------------------------
a:------6-9-6-7-6---7------76---6----------------------
e:----7-----------9---9-------9------------------------

Chorus
[ Tab from: http://www.guitartabs.cc/tabs/l/less_than_jake/liquor_store_btab.html ]
g:-----------------------------------------------------
d:-----------------------------------------------------
a:--------7777----7777----------7----------------------
e:----7777----5555------------------------0(punch)-----

Variation

g:-----------------------------------------------------
d:---------------------66-6h7p6------------------------
a:-----6-9-6-7-6---7-----------------------------------
e:---7-----------9---9----------6-7--------------------

Interlude

g:-----------------------------------------------------
d:-----------------------------------------------------
a:----------7----9-7-6-----9-slide---------------------
e:----7---7------------7-----------down-5555-0000------

Outro

g:-----------------------------------------------------
d:-----------------------------------------------------
a:---------7777----7777--------last note right here-7--
e:-----7777----9999------------------------------------

play it with a pick, for a better sound

Comments