Less Than Jake - Last One Out Of Liberty City Chords & Tabs

 

Last One Out Of Liberty City Chords & Tabs

Less Than Jake Chords & Tabs

Version: 1 Type: Tab 1 rating
1 star 2 stars 3 stars 4 stars 5 stars
comments

Last One Out Of Liberty City Tab

------------------------------------------------------------------------------- 
LAST ONE OUT OF LIBERTY CITY - Less Than Jake 
-------------------------------------------------------------------------------  

BASS SOLO 

Intro x1 (DISTORTION) 
e|--------------------------------------------------------------------| 
B|--------------------------------------------------------------------| 
G|--------------------------8-8-8-----------------8-8-8-8-8-8---------| 
D|-8-8-8-8-----8-8-8\6-6-6--8-8-8-8-8-8-8-8-8-6-6-8-8-8-8-8-8---------| 
A|-8-8-8-8-----8-8-8\6-6-6--6-6-6-8-8-8-8-8-8-6-6-6-6-6-6-6-6---------| 
E|-6-6-6-6-----6-6-6\4-4-4--------6-6-6-6-6-6-4-4---------------------| 

Intro (CONT.) 
e|--------------------------------------------------------------------| 
B|--------------------------------------------------------------------| 
G|--------------8-8-8-8-8-8--------------8-8-8-8-8-8------------------| 
D|-8-8-8\6-6-6--8-8-8-8-8-8--8-8-8\6-6-6-8-8-8-8-8-8------------------| 
A|-8-8-8\6-6-6--6-6-6-6-6-6--8-8-8\6-6-6-6-6-6-6-6-6------------------| 
E|-6-6-6\4-4-4---------------6-6-6\4-4-4------------------------------| 

Chorus Part 1 (x4) 
e|--------------------------------------------------------------------| 
B|--------------------------------------------------------------------| 
G|-------------8-8-8--------------------------------------------------| 
D|-8-8-8\6-6-6-8-8-8-8-8-8-8------------------------------------------| 
A|-8-8-8\6-6-6-6-6-6-8-8-8-8------------------------------------------| 
E|-6-6-6\4-4-4-------6-6-6-6------------------------------------------| 
I know, I know, I know, I know just who i am....... 
[ Tab from: http://www.guitartabs.cc/tabs/l/less_than_jake/last_one_out_of_liberty_city_tab.html ]
Chorus Part 2 (x1) 
e|--------------------------------------------------------------------| 
B|--------------------------------------------------------------------| 
G|-------8-8-8-8------------------------------------------------------| 
D|-6-6---8-8-8-8------------------------------------------------------| 
A|-6-6---6-6-6-6------------------------------------------------------| 
E|-4-4----------------------------------------------------------------| 
Just who i am, just who i am, (just who i..) 

Chorus Part 3 (x2) 
e|--------------------------------------------------------------------| 
B|--------------------------------------------------------------------| 
G|----------------------------8-8-8-8-8-8----8-6-8-6------------------| 
D|8-8-8-8-8-8-8-8-8-8-8-8-8-8-8-8-8-8-8-8----8-6-8-6------------------| 
A|8-8-8-8-8-8-8-8-8-8-8-8-8-8-6-6-6-6-6-6----6-4-6-4------------------| 
E|6-6-6-6-6-6-6-6-6-6-6-6-6-6-----------------------------------------| 
And I know there comes a time when you lose faith..... 

Verse Part 1(Dist. Ska) (x3) 
e|-x-4-x-4-x-6-x-6-x-6-x-6-x-6-x-6------------------------------------| 
B|-x-4-x-4-x-8-x-8-x-6-x-6-x-6-x-6------------------------------------| 
G|-x-5-x-5-x-8-x-8-x-7-x-7-x-7-x-7------------------------------------| 
D|-x-6-x-6-x-6-x-6-x-8-x-8-x-8-x-8------------------------------------| 
A|-x-6-x-6-x-6-x-6-x-8-x-8-x-8-x-8------------------------------------| 
E|-x-4-x-4-x-6-x-6-x-6-x-6-x-6-x-6------------------------------------| 
The other day, this girl came up to me and asked... 

Verse Part 2 
e|--------------------------------------------------------------------| 
B|--------------------------------------------------------------------| 
G|---------------8-8-8-8-8-8------------------------------------------| 
D|-6-6-6-6-6-6-6-8-8-8-8-8-8------------------------------------------| 
A|-6-6-6-6-6-6-6-6-6-6-6-6-6------------------------------------------| 
E|-4-4-4-4-4-4-4------------------------------------------------------| 
Friends always called a waste of time. 

Then.. 
Bass Solo 

x1 
e|--------------------------------------------------------------------| 
B|--------------------------------------------------------------------| 
G|--------8-----------------------------------------------------------| 
D|8---6---8----8-8-8-8------------------------------------------------| 
A|8---6---6----8-8-8-8------------------------------------------------| 
E|6---4--------6-6-6-6------------------------------------------------| 

Enjoy, By Stu.
------------------------------------------------------------------------------- 



Comments