Less Than Jake - Krazy Glue Chords & Tabs

 

Krazy Glue Chords & Tabs

Less Than Jake Chords & Tabs

Version: 2 Type: Bass Tab 0 ratings
1 star 2 stars 3 stars 4 stars 5 stars
comments

Krazy Glue Bass Tab

   
Song:Krazy Glue    
Band:Less Than Jake    
Album:Losing Streak
tabbed by: Josh Goebel
Its not exact but it works for me
Email me at yeahomes@aol.com with any corrections

Intro/verse:

G:---------------------------------------------------------------
D:-------------------------------------6-------------------------
A:---------33333333-----4-6-88-6-4-6-44-4------------------------
E:-33333333---------44-6------------------3-0-5-6----------------

Continued...        Play only during intro and 2nd verse
G:-----------------|----------------------------------------------
D:-----------------|6-65-53-81086---------------------------------
A:-----4-6-88-6-4-6|-----------------4--6-8-9-10----4---6-8-9-10--
E:-44-6------------|-------------4-6--6----------4-6--6-----------
[ Tab from: http://www.guitartabs.cc/tabs/l/less_than_jake/krazy_glue_btab_ver_2.html ]
Continued...
G:----------------------------|
D:--8----6--------------------|
A:10-10-8-8---------33333333--|
E:----------33333333----------|

Play at the end of first verse instead of the part in the | |

G:-----------
D:-----------
A:6-65-53-31-
E:-----------

"Tradition seems to stick to you" 
G:------------------------------|        
D:------------------------------|        
A:--------------------4444-66-4-|2x then 
E:44444444666666664444---------6|        

"Tradition" contiuned...
G:-----------------
D:-----------------
A:--------33333333-
E:33333333---------

"Just what keeps running"
G:---------------------------
D:---------------------------
A:66666666666666-------------
E:--------------444444444444-

Ending:

G:-------------------------------
D:-------------------------------
A:--------------------4444-66-4--
E:44444444666666664444---------6-
Comments