Less Than Jake - Kehoe Chords & Tabs

 

Kehoe Chords & Tabs

Less Than Jake Chords & Tabs

Version: 1 Type: Tab 0 ratings
1 star 2 stars 3 stars 4 stars 5 stars
comments

Kehoe Tab

Artist: Less Than Jake
Song: Kehoe
Album: Bourders and Bounderies
Tabed By: Stafford
E-mail: punk6strings@excite.com



Intro
e--------5--------------------3--2----------------------------------|
B--3--5----5--3------3--5--3--------3-------------------------------|
G----------------2--------------------------------------------------|
D-------------------------------------------------------------------|
A-------------------------------------------------------------------|
E-------------------------------------------------------------------|

Intro 2 
e-------------------------------------------------------------------|
B-------------------------------------------------------------------|
G--5--5--5--5--11--7--7--7----11-X-X--9-X-X--7-X-X--6---------------|
D--5--5--5--5--11--7--7--7----11-X-X--9-X-X--7-X-X--6---------------|
A--3--3--3--3---9--5--5--5-----9-X-X--7-X-X--5-X-X--4---------------|
E-------------------------------------------------------------------|
[ Tab from: http://www.guitartabs.cc/tabs/l/less_than_jake/kehoe_tab.html ]
Verse
e---------|----------|---------|---------|--------|-----------------|
B---------|----------|---------|---------|--------|-----------------|
G---------|----------|---------|---------|--------|-----------------|
D--5------|--11------|---------|--7------|--------|-----------------|
A--3--X8--|---9--X8--|--7------|--5--X4--|--7-----|-----------------|
E---------|----------|--5--X8--|---------|--5--X4-|-----------------|


e---------|---------|--------|--------------------------------------|
B---------|---------|--------|--------------------------------------|
G---------|---------|--------|--7--7--7-----------------------------|
D--5------|---------|--7-----|--7--7--7-----------------------------|
A--3-X8---|--7------|--5-X8--|--5--5--5-----------------------------|
E---------|--5--X8--|--------|--------------------------------------|

Refrain
e-------------------------------------------------------------------|
B-------------------------------------------------------------------|
G--5--5--5--5--11--7--7--7----11-X-X--9-X-X--7-X-X--6---------------|
D--5--5--5--5--11--7--7--7----11-X-X--9-X-X--7-X-X--6---------------|
A--3--3--3--3---9--5--5--5-----9-X-X--7-X-X--5-X-X--4---------------|
E-------------------------------------------------------------------|

Outro
e--5--9--9--9--9--9--9----------------------------------------------|
B-------------------------------------------------------------------|
G-------------------------------------------------------------------|
D-------------------------------------------------------------------|
A-------------------------------------------------------------------|
E-------------------------------------------------------------------|
Comments