Less Than Jake - Just Like Frank Chords & Tabs

 

Just Like Frank Chords & Tabs

Less Than Jake Chords & Tabs

Version: 1 Type: Tab 0 ratings
1 star 2 stars 3 stars 4 stars 5 stars
comments

Just Like Frank Tab

Person: Hamilton B.

song: Just Like Frank

artist: Less Than Jake

tab:
e|------------------------------------------|
B|------------------------------------------|
G|-7-------9-------7-------9-------7-7-7-7--|
D|-7---7---9---5---7---7---9---5---7-7-7-7--|
A|-5---7---7---5---5---7---7---5---5-5-5-5--|
E|-----5-------3-------5-------3------------|

Verse PT1
e|----------------------------------------------|
B|----------------------------------------------|
G|-7--7--7--4--4--4-----------------------------|
D|-7--7--7--4--4--4--2--2--2--5--5--5--7--7--7--|
A|-5--5--5--2--2--2--2--2--2--5--5--5--7--7--7--|
E|-------------------0--0--0--3--3--3--5--5--5--|I know it, he knows
it...
[ Tab from: http://www.guitartabs.cc/tabs/l/less_than_jake/just_like_frank_tab.html ]
Verse PT2e
|-----------------------------------------------------------|
B|-----------------------------------------------------------|
G|---------9-9-9-9-7-7-7-7--7-7-7-7---------9-9-9-9-7-7-7-7--|
D|-7-7-7-7-9-9-9-9-7-7-7-7--7-7-7-7-7-7-7-7-9-9-9-9-7-7-7-7--|
A|-7-7-7-7-7-7-7-7-5-5-5-5--5-5-5-5-7-7-7-7-7-7-7-7-5-5-5-5--|
E|-5-5-5-5--------------------------5-5-5-5------------------|
When someones
politics....Choruse
E|------------------------------------------|
B|------------------------------------------|
G|-7-------9-------7-------9-------7-7-7-7--|
D|-7---7---9---5---7---7---9---5---7-7-7-7--|
A|-5---7---7---5---5---7---7---5---5-5-5-5--|
E|-----5-------3-------5-------3------------|Just like anyone....Then

e|--------------------------------------|
B|--------------------------------------|
G|-7-~~~~~~~------------------7-~~~~~~--|
D|-7-~~~~~~~------------------7-~~~~~~--|
A|-5-~~~~~~~------------------5-~~~~~~--|
E|--------------------------------------|I saw him.....Verse
PT1Interlude

e|--------------------------------------------|
B|-----------------x--x--x--x-----------------|
G|------------7----x--x--x--x--9--9--9--9--9--|
D|--5----7----7----x--x--x--x--9--9--9--9--9--|
A|--5----7----5----x--x--x--x--7--7--7--7--7--|
E|--3----5------------------------------------|

Solo (same as every other version on the net)
e|-------------------------------------------------|
B|-------------------------------------------------|
G|----7-7-7-6-----7-7-7-6----7-7-7-6----7-6--------|
D|-7------------7------------7------------7-----7--|
A|-------------------------------------------------|
E|-------------------------------------------------|
Comments