Less Than Jake - Johnny Quest Thinks Were Sellouts Chords & Tabs

 

Johnny Quest Thinks Were Sellouts Chords & Tabs

Less Than Jake Chords & Tabs

Version: 3 Type: Bass Tab

Johnny Quest Thinks Were Sellouts Bass Tab

   
Intro
G|-----------------------------------------|
D|-----6-------------------6----7-6--------|
A|-4-7---7----3-6-6-3--4-7---7------7-7-6--|
E|----------4------------------------------|

G|----------------------------------------------|
D|-----6--------------------6---7-9-7-6-7-6-----|
A|-4-7---7-----3-6-6-3--4-7---7-------------7-6-|
E|---------4-4----------------------------------|

G|-----------------------------------------|
D|-----6--------------------6---7-7-6------|
A|-4-7---7-----3-6-6-3--4-7---7-------7-6--|
E|---------4-4-----------------------------|

G|--------------------------------------------|
D|-----6-------------------6------------------|
A|-4-7---7------3-6-3--4-7---7------3-6-3-4---|
E|----------4-4-----------------4-4-----------|

Pre-Verse 1 (00:26) or
G|(x1)---------------------|-------------------------|Choose the one
D|-------------------------|-------------------------|that sounds best
A|-4--4------4--4--3-4-6-3-|-4--4------4--4--3-4-6-4-|
E|-------4-----------------|-------4-----------------|

Pre-Verse 2 (00:29-00:30)
G|(x3)--------------|(x1)---------------|
D|---6----6---------|---6----6----------|
A|-4---44-----3---3-|-4---44-----3-4-6--|
E|----------4---4---|----------4--------|

Verse 1 (00:36)
G|-------------------------------------|
D|-----6-----------------6---77-6------|
A|-4-7---7----3-6-3--4-7---7------77-6-|
E|---------44--------------------------|

G|------------------------------------|
D|-----6-----------------6-----6---6--|
A|-4-7---7----3-6-3--4-7---7----------|
E|---------44----------------4---4----|

G|-------------------------------------|
D|-----6-----------------6---99-7-66-7-|
A|-4-7---7----3-6-3--4-7---7-----------|
E|---------44--------------------------|

G|-------------------------------------|
D|-----6-----------------6-------------|
A|-4-7---7---3-66-3--4-7---7---3-6-3*--|
E|---------4-----------------4---------|

Chorus (00:50)
G|-----------------------------------------------|(a)
D|-----------------------------------------------|
A|-1--1--------------4--4-4-4-4-4------3h4p3-----|
E|------2--2-2-2-2-2--------------4--4-------4*--|
Chorus Pattern:
G|--------------------------------------|(b) a--| x1
D|------4-4-4-3--3--------6-------6-----| b-----| x1
A|-1--1------------6--4-4---4-----------| a-----| x1
E|----------------------------4-4---4*--| c-----| x1

G|-----------------------------------------------|(c)
D|------4--4-4-4-4-4-----------------------------|
A|-1--1--------------4--4-4-4-4-4-3--3-3-3-3-3---|
E|-----------------------------------------------|
2 possibilities for (c):
G|-------------------------------------------------|(c)
D|------4--4-4-4-3-4-3-----------------------------|
A|-1--1----------------4--4-4-4-4-4-3--3-3-3-3-3---|
E|-------------------------------------------------|

(Pre-Verse 1) (01:03)

Pre-Verse 3 (01:07)
G|(x3)--------------|(x1)---------------|
D|---6----6---------|---6----6-/9-7-6-7-|
A|-4---44-----3---3-|-4---44------------|
E|----------4---4---|-------------------|
[ Tab from: http://www.guitartabs.cc/tabs/l/less_than_jake/johnny_quest_thinks_were_sellouts_btab_ver_3.html ]
Verse 2 (01:14)
G|-------------------------------------|
D|-----6-----------------6---77-6------|
A|-4-7---7----3-6-3--4-7---7------77-6-|
E|---------44--------------------------|

G|------------------------------------|
D|-----6-----------------6-----6---6--|
A|-4-7---7----3-6-3--4-7---7----------|
E|---------44----------------4---4----|

G|-------------------------------------|
D|-----6-----------------6---99-7-66-7-|
A|-4-7---7----3-6-3--4-7---7-----------|
E|---------44--------------------------|

G|-------------------------------------|
D|-----6-----------------6-------------|
A|-4-7---7----3-6-3--4-7---7---3-6-3---|
E|---------44----------------4---------|

(Chorus) (01:28) Chorus Pattern: a x1
b x1
a x1
c x1

Bridge (01:41-01:42)
G|--------------------------------------------------------------------|
D|---------1-1--2-4-2-2-1-1--------------------------6----------------|
A|--------------------------4-4-1-1---------6-6--6-9---9-7-6--6-7-6---|
E|-2-2--22--------------------------2-2--22-------------------------7-|

G|----------------------------------------------------------------|
D|--------1-1-----------------------------1-1--11-2-1-2-1-2-1-----|
A|------------2-1---1-2-4-2-1---1-----------------------------4-2-|
E|--2--22---------4-----------4---2-2--22-------------------------|
/
These are two 1, not eleven
G|--------------------------------------------------------------------|
D|---------1-1--2-4-2-2-1-1--------------------------6----------------|
A|--------------------------4-4-1-1---------6-6--6-9---9-7-6--6-7-6---|
E|-2-2--22--------------------------2-2--22-------------------------7-|

G|------------------------------------------------------------------|
D|---------1-1-----------------------------1-1--2-4-2-2-1-1---------|
A|-------------2-1---1-2-4-2-1---1--------------------------4-4-2-2-|
E|-2-2--22---------4-----------4---2-2--22--------------------------|

G|-----------------|
D|-2-2-1-1---------|
A|---------4-4-2-2-|
E|-----------------|

Outro = (Chorus)(02:09-02:10)
Chorus Pattern: a x1
b x1
a x1
c x1
d x1
e x1
f x1

G|----------------6--6-5-6-5-6---6---6-5---|
D|-8--8-8-8-8-8-8--------------6---6-----6-|
A|-----------------------------------------|
E|-----------------------------------------|
(d)
G|----------------6-5---6-5-6---6---/8--6-5---|
D|-8--8-8-8-8-8-8-------------6---6---------5-|
A|--------------------------------------------|
E|--------------------------------------------|

G|-------------------------------------------------------------------|
D|-------------------------------------------------------------------|
A|-1--1-1-1-1---4--4-4-4-4-4--4--4-4-4-4-4-6--6-6-6-6-6-8--8-8-8-8-8-|
E|------------2------------------------------------------------------|

-----------------------------------|(e)
-----------------------------------|
-4--4-4-4-4-4-6-8--6-8-6--6--6-6-6-|
-----------------------------------|

G|(x1)---------------------|(x1)-----------------|(f)
D|-------------------------|---------------------|
A|-4--4------4--4--3-4-6-3-|-4--4------4--4------|
E|-------4-----------------|-------4---------4---|End