Less Than Jake - Is This Thing On Chords & Tabs

 

Is This Thing On Chords & Tabs

Less Than Jake Chords & Tabs

Version: 3 Type: Tab 0 ratings
1 star 2 stars 3 stars 4 stars 5 stars
comments

Is This Thing On Tab

IS THIS THING ON - Less Than Jake

By:Josh Martin
[ Tab from: http://www.guitartabs.cc/tabs/l/less_than_jake/is_this_thing_on_tab_ver_3.html ]
e|----10---(10h)11-10----13-10----11-10---10--|
B|-11----11-----------11-------11-------13----|
G|--------------------------------------------|    x4
D|--------------------------------------------|
A|--------------------------------------------|
E|--------------------------------------------|
    m		       m	      		      m   m    		     m   m 
e|--6---------6--6--8--8------6--6--8---6--8---6--6---6---8------6--6---6-6--6---8--|
B|--6---------8--6--10-10-----8--6--10--8--8---8--6---8---8------6--8---6-6--8---8--|
G|--7---------8--7--10-10-----8--7--10--8--9---8--7---8---9------7--8---7-7--8---9--|
D|--8---------8--8--10-10-----8--8--10--8--10--8--8---8---10-----8--8---8-8--8---10-|
A|--8---------6--8--8--8------6--8--8---6--10--6--8---6---10-----8--6---8-8--6---10-|
E|--6---------6--6--8--8------6 -6--8---6--8---6--9---6---10-----6--6---6-6--6---8--|

Thats' pretty much the song,  I didn't seperate the verse and the 
chorus like an idiot but...
it runs together like it's tabbed here so it shouldnt be a problem. 
 later kiddies
Comments