Less Than Jake - History Of A Boring Town Chords & Tabs

 

History Of A Boring Town Chords & Tabs

Less Than Jake Chords & Tabs

Version: 1 Type: Bass Tab 0 ratings
1 star 2 stars 3 stars 4 stars 5 stars
comments

History Of A Boring Town Bass Tab

   
  BTAB: History Of A Boring Town
Artist: Less Than Jake
 Album: Hello Rockview
Author: Rattman (jratt0@hotmail.com)

**Padrino's Bass Tab Exclusive!**

Play With Pick.

[4 measures guitar/vocals]
        x 3         "...someday..."
G-----------------|----------------
D-----------4-2---|----------------
A-----4-5-------5-|----------------
E-0h5-----3-------|-3-3-3--3-3-3-3-
[ Tab from: http://www.guitartabs.cc/tabs/l/less_than_jake/history_of_a_boring_town_btab.html ]
Verse:
             x 2                             x 3(sometimes less)
G---------------------------------------|-----------------|---------------
D---------7-7-5-4-----------------------|-----------4-2---|---------------
A---4-5-7---------5---2-3-5-5-5-3-3-2---|---4-5-4-------5-|---------------
E-5-----------------3-----------------3-|-5-------3-------|-3-3-3-3-3-3-3-

Chorus:
"Same old crowd..."
G---------------------------------------------------------------------------
D---------------------------------------------------------------------------
A---------------------------------------------------------------------------
E-5-5-5-5-5-5-5-5-0-0-0-0-0-0-0-0-0-2-2-2-2-2-2-2-2/10-10-10-10-10-10-10-10-

Bridge:
G---------------------------------------------------------------------
D---------------------------------------------------------------------
A-----------------5-5-5-5-5-5-5-5-4-----------------------------------
E-2-2-2-2-2-2-2-2-----------------------------------------------------

[For Guitar Solo Play Verse once]


Taken from Padrino's Bass Tab Archive: http://members.xoom.com/jszalma/

Comments