Less Than Jake - Help Save The Youth Of America From Exploding Chords & Tabs

 

Help Save The Youth Of America From Exploding Chords & Tabs

Less Than Jake Chords & Tabs

Version: 1 Type: Bass Tab 0 ratings
1 star 2 stars 3 stars 4 stars 5 stars
comments

Help Save The Youth Of America From Exploding Bass Tab

Tab Created By Mark Piper
Please visit my band website at http://manakin1.tripod.com

This is a wicked song. The bass isn’t actually this on the song but we play it like this
live and it sounds right because it’s the same as the guitar. I haven’t put how many times
you have to strum the notes but just listen to the song and you will get it.


Opening after “Sit down remind me how.”

G] ------------------------------------
D] ------------------------------------
A] -------4-55555---2---55---4-5-------
E] 5555555-----------2-3--4-5----------      Repeat X2


Vesre1 “and just outside I can hear the sounds”
G] ----------------------------                           
D] ----------------------------
A] ----5555--55--4-55----------
E] 5555----33--55--------------  Repeat X2

“And with this cigarette that I just lit”
G]----------------------------------------
D]----------------------------------------
A]--55--77--------------------------------
E]33--55----------------------------------Reapeat x2

“The world just seems to big. The world just seems to big”
G] ------------------------------------------------
D] ------------------------------------------------
A] ---555------------------------------------------
E] 333---------------------------------------------
“Sit down, remind me how, this is the same old story of growing up and getting lost”
G] ------------------------------------------------
D] ------------------------------------------------
A] ----------55--------22--------55----------------
E] 55----3333--------55--------33------------------


G] -------------------------------------------------------
D] -------------------------------------------------------
A] ---------------4-55555---2-------555----------4-5------
E] ---5555555-------------------2-3--------4-5------------   Play Just once 
[ Tab from: http://www.guitartabs.cc/tabs/l/less_than_jake/help_save_the_youth_of_america_from_exploding_btab.html ]
“And outside I can see my breath” 
D] --------------------------------------------------------
A] ------------5555----------55------------4-55------------
G] --------------------------------------------------------
E] ----5555-----------33-----------55----------------------


   “And with this cigarette that I just lit”
G] --------------------------------------------------------
D] --------------------------------------------------------
A] -----------55---------77--------------------------------
E] ----33----------55-------------------------------------- 

“The world just seems to big. The world just seems to big”
G] --------------------------------------------------------
D] --------------------------------------------------------
A] --------------------------------------------------------
E] ----333-------000---------------------------------------



“Sit down, remind me how, this is the same old story of growing up and getting lost”
G] ---------------------------------------------------------
D] ---------------------------------------------------------
A] -------------------55--------22--------55---------5555---
E] ----55----3333--------55--------33------------3333-------

“And all the late night calls and all the lost hopes”
G] ---------------------------------------------------------
D] ---------------------------------------------------------
A] ----------------55---------------------------------------
E] -----777---5--------5------------------------------------    repeat X2

“And the lost directions”
G] ---------------------------------------------------------
D] ---------------------------------------------------------
A] -----555--444--------------------------------------------
E] ----------------------55---------------------------------


“Sit down, remind me how, this is the same old story of growing up and getting lost”
G] ---------------------------------------------------------
D] ---------------------------------------------------------
A] -------------------55--------22--------55----------------
E] ----55----3333--------55--------33-----------------------   Repeat to end
Comments