Less Than Jake - Great American Sharpshooter Chords & Tabs

 

Great American Sharpshooter Chords & Tabs

Less Than Jake Chords & Tabs

Version: 1 Type: Tab 0 ratings
1 star 2 stars 3 stars 4 stars 5 stars
comments

Great American Sharpshooter Tab

------------------------------------------------------------------------------- 
GREAT AMERICAN SHARPSHOOTER - Less Than Jake 
------------------------------------------------------------------------------- 

1st Verse 
So you think of what it could've been... 
e|----------------------------------------------------------| 
B|----------------------------------------------------------| 
G|----------------6---------------------------8-------------| x4 
D|-----6----------6----------6----------------8-------------| 
A|-----6----------4----------6----------------6-------------| 
E|-----4---------------------4------------------------------| 

Chorus 1 
Oh... It's for the... 
e|----------------------------------------------------------------| 
B|----------------------------------------------------------------| 
G|----6---6------------6-----6------------------6---6-------------| 
D|----6---6---4---6----6-----6-----4-----6------6---6-----4---6---| 
A|----4---4---4---6----4-----4-----4-----6------4---4-----4---6---| 
E|------------2---4----------------2-----4----------------2---4---| 

It's ok, you didn't need her anyway 
e|---------------------------------------------| 
B|---------------------------------------------| 
G|-----8-------8-------------------------------| 
D|-----8-------8------4--4--4--4---------------| 
A|-----6-------6------4--4--4--4---------------| 
E|--------------------2--2--2--2---------------| 
[ Tab from: http://www.guitartabs.cc/tabs/l/less_than_jake/great_american_sharpshooter_tab.html ]
Chorus 2 
e|----------------------------------------------| 
B|----------------------------------------------| 
G|--------6---88---6----------6--------6--------| x2 
D|----6---6---88---6------6---6---88---6--------| 
A|----6---4---66---4------6---4---88---4--------| 
E|----4-------------------4-------66------------| 

2nd Verse 
e|----------------------------------------------------------| 
B|----------------------------------------------------------| 
G|----------8----8--------8----8--------8----8--------8-----| 
D|----6---6-8----8-6----6-8----8-6----6-8----8-6----6-6-----| 
A|----6---6-6----6-6----6-6----6-6----6-6----6-6----6-6-----| 
E|----4---4--------4----4--------4----4--------4----4-------| 

Play Chorus 1 
Play Chorus 2 

Chorus 3 
.................... 
e|--------------------------------------------------------------------| 
B|--------------------------------------------------------------------| 
G|------6--8--6------6-----6------------------------------------------| 
D|---6--6--8--6---6--6--8--6-----6 hold-------------------------------| 
A|---6--4--6--4---6--4--8--4-----6 hold-------------------------------| 
E|---4------------4-----6--------4 hold-------------------------------| 

Play Chorus 2 

Ending 
e|----------------------| 
B|----------------------| 
G|----8-----6-----------| 
D|----8-----6-----6-----| 
A|----6-----4-----6-----| 
E|----------------4-----| 
Enjoy, By Stu.
=============================================================================== 



Comments