Less Than Jake - Gainsville Rock City Chords & Tabs

 

Gainsville Rock City Chords & Tabs

Less Than Jake Chords & Tabs

Version: 2 Type: Tab 0 ratings
1 star 2 stars 3 stars 4 stars 5 stars
comments

Gainsville Rock City Tab

This is my first tab ever and im not sure if its right or not (i think it is anyway :P) 
and i havent tabbed the verse :'( boo hoo

Intro(over trumpets and trumbones etc.)
e|-------------------|
B|-------------------|
G|-------2---6-------|
D|---2---2---6---4---|
A|---2---0---4---4---|
E|---0-----------2---|
[ Tab from: http://www.guitartabs.cc/tabs/l/less_than_jake/gainsville_rock_city_tab_ver_2.html ]
Solo(play the same when trumpets join in)
e|-------------------------------------------|
B|-------------------------------------------|
G|-------------------------------------------|
D|---------------------------6---7---6---7---|
A|---5---7---4---5---2---4-------------------|
E|-------------------------------------------|

And the chorus
e|-------------------|
B|-------------------|
G|-----------9---6---|
D|---4---9---9---6---|
A|---4---9---7---4---|
E|---2---7-----------|

and thats it, if i ever figure out the verse ill post it but I think it might be

e|-----------|
B|-----------|
G|---1---2---|
D|---2---2---|
A|---2---0---|
E|-----------|

Questions and comments mail me at Gokuu398@aol.com
And since this is my first tab please take it easy on me
Comments