Less Than Jake - Gainsville Rock City Chords & Tabs

 

Gainsville Rock City Chords & Tabs

Less Than Jake Chords & Tabs

Version: 2 Type: Bass Tab 0 ratings
1 star 2 stars 3 stars 4 stars 5 stars
comments

Gainsville Rock City Bass Tab

Intro:
-----------------| 
-----------------| 
---0-4-----0-4---| 
-0-----2-0-----2-| 

(Palming) x4
-------------------------------------------------|
-------------------------------------------------|
-----------------------------------------------0-|
-0-00-0-00-0-0-00-0-00-0-0-00-0-00-0-0-00-0-00---|

Verse:x2
-----------------------------------------|
-------------6h7-6h7-------------6h7-6h7-|
-5h7-4h5-2h4---------5h7-4h5-2h4---------|
-----------------------------------------|

---------------------------------|
-------------6h7-6h7-------------|
-5h7-4h5-2h4---------5h7-4h5-2-0-|
---------------------------------|

Chorus:
----------------------------------------------------------------|
-------------2-2-2--------------------2-2-2---------------------|
-------2-2-2-------4-4-4--------2-2-2-------4-4-4--2-2-2-0-0-0--|
-2-2-2--------------------2-2-2--------------------------------0|

(Palming) 
-------------------------------------------------|
-------------------------------------------------|
-----------------------------------------------0-|
-0-00-0-00-0-0-00-0-00-0-0-00-0-00-0-0-00-0-00---|
[ Tab from: http://www.guitartabs.cc/tabs/l/less_than_jake/gainsville_rock_city_btab_ver_2.html ]
Verse:
-----------------------------------------|
-------------6h7-6h7-------------6h7-6h7-|
-5h7-4h5-2h4---------5h7-4h5-2h4---------|
-----------------------------------------|

---------------------------------|
-------------6h7-6h7-------------|
-5h7-4h5-2h4---------5h7-4h5-2-0-|
---------------------------------|

Chorus:
--------------------------------------------------|
-------------2-2-2--------------------2-2-2-4-4-4-|
-------2-2-2-------4-4-4--------2-2-2-------------|
-2-2-2--------------------2-2-2-------------------|

----------------------------------------------------------|
-------------2-2-2--------------2-2-2---------------------|
-------2-2-2-------4-4-4--2-2-2-------4-4-4--2-2-2-0-0-0--|
-2-2-2---------------------------------------------------0|

Bridge:x5
---------------------------------------------------------|
---------------------------------------------------------|
---------------0-0-0-0-0-0-0-4-4-4-4-4-4-4---------------|
-0-0-0-0-0-0-0-----------------------------2-2-2-2-2-2-2-|

Outro:
---------------------------|
---------------------------|
-5h7-4h5-5h7-4h5-5h7-4h5-5-|
---------------------------|
Comments