Less Than Jake - Dopeman Chords & Tabs

 

Dopeman Chords & Tabs

Less Than Jake Chords & Tabs

Version: 1 Type: Tab 1 rating
1 star 2 stars 3 stars 4 stars 5 stars
comments

Dopeman Tab

  Intro: (x4)
E|------------------|-----------------------------| 
B|------------------|-----------------------------|
G|5--4--5--4--------|-----------------------------|
D|------------7--5--|----4--5--7--5--4--5---------|
A|------------------|--5--------------------------|
E|------------------|-----------------------------|
                    PM....................

E|------------------|-----------------------------|
B|------------------|-----------------------------|
G|5--4--5--4--5--7--|-----------------------------|
D|------------------|----4--5--7--5--4--5---------|
A|------------------|--5--------------------------|
E|------------------|-----------------------------|
                    PM........................... 

Lyrics
[ Tab from: http://www.guitartabs.cc/tabs/l/less_than_jake/dopeman_tab.html ]
Dope man, man's got another big plan
He'll sell it to you or anyone he can
Because this is much better that minimum wage 
no matter how things work he's still gunna get paid
Think about it for a minute more,
It's either work at macdonalds or the corner store
a quick money fix from a deal or two
and when a decision comes down, what would you do?

you'd take, take a welfare state, or a dopeman's fate 
and keep the cycle spinning around.

Dopeman dopeman's got the upper hand
coz people wanna get as much as they can
dopemans reasons will always stay the same
and for some people its the only way to stay sane.
Think about it for a minute more,
A life of crime or hanging round the liquor store
a quick drug fix to get you through what would you do?

you'd take, take a welfare state, or a dopeman's fate 
and keep the cycle spinning around.
 
Comments