Less Than Jake - Dont Fall Asleep On The Subway Chords & Tabs

 

Dont Fall Asleep On The Subway Chords & Tabs

Less Than Jake Chords & Tabs

Version: 1 Type: Bass Tab

Dont Fall Asleep On The Subway Bass Tab

-------------------------------------------------------------------------------
    	     Don't Fall Asleep On The Subway - Less Than Jake
-------------------------------------------------------------------------------

Tabbed By : identityxcrysis
e-mail: xrunawayboyx@hotmail.com

Tuning: EADG (Standard)

Intro
G|-------------------------------------------------------------------|
D|----------22---------------2--2------------22----------2-4--2--2---|
A|-2-2-00-0----00-0-2-2-0-0---------2-2-00-0----00-0-2-2-------------|
E|-------------------------------------------------------------------|

Verse
G|--------------------|
D|--------------2--2--|
A|-2-2-00-------------|
E|--------------------|
[ Tab from: http://www.guitartabs.cc/tabs/l/less_than_jake/dont_fall_asleep_on_the_subway_btab.html ]
Pre-chorus
G|--------------------------|
D|--------------------------|
A|-44444444--7---77777------|
E|--------------------------|
In the last pre-chorus, Roger plays something that I can't make out, but it's like this:

G|--------------------|
D|--9-7-6---6-7-9-7---|
A|--------9-----------|
E|--------------------|


Chorus
G|------------------------------------------------------|
D|-------------2-2---------------------------2-2--------|
A|-2-2-0-00-0------0-00-0-2-2-4-44-4--0-00-0------------|
E|------------------------------------------------------|

Bridge
G|------------------------------------------------|
D|------------------------------------------------|
A|--------------------X3---5555555555555555-------|
E|-22222222-55555555------------------------------|

Thats it
Pretty basic
===============================================================================