Less Than Jake - Bad Scene And A Basement Show Chords & Tabs

 

Bad Scene And A Basement Show Chords & Tabs

Less Than Jake Chords & Tabs

Version: 1 Type: Bass Tab 0 ratings
1 star 2 stars 3 stars 4 stars 5 stars
comments

Bad Scene And A Basement Show Bass Tab

------------------------------------------------------------------------------- 
BAD SCENE AND A BASEMENT SHOW – Less Than Jake 
------------------------------------------------------------------------------- 

Intro/Chorus 
G|---------------------------------------------------------------------------| 
D|---------------------------------------------------------------------------| 
A|-----------------------6-6-6-6---3-3-5-5—(4x)-----3-3-3-3------------------| 
E|--3-3-3-3---6-6-6-6--------------------------------------------------------| 

Verse 
G|---------------------------------------------------------------------------| 
D|---------------------------------------------------------------------------| 
A|----------------6-6------6-6-6---------------3-3-3-3-----------------------| 
E|---6-6---6-6-6-----------------6-6----6-6-6--------------------------------| 
[ Tab from: http://www.guitartabs.cc/tabs/l/less_than_jake/bad_scene_and_a_basement_show_btab.html ]
After 2nd Chorus (Change her miiiiiiiind…) 
G|---------------------------------------------------------------------------| 
D|---------------------------------------------------------------------------| 
A|-----------6-6-6-6----------6-6-6-6----------------------------------------| 
E|---6-6-6-6----------4-4-4-4------------------------------------------------| 

Back To Chorus 

Bridge (rest until “She don’t understand me”) 
G|---------------------------------------------------------------------------| 
D|---------------------------------------------------------------------------| 
A|---rest-------------6-6--3-3-----------6-6-6-6----------6-6---3-3----------| 
E|-------------------------------6-6-6-6----------6-6-6-6--------------------| 

Ending (last “She don’t understand me”) 
G|---------------------------------------------------------------------------| 
D|---------------------------------------------------------------------------| 
A|--6-6----3-3---------------------------------------------------------------| 
E|---------------6-6---------------------------------------------------------| 
Enjoy, By Stu.
------------------------------------------------------------------------------- 


Comments