Less Than Jake - Automatic Chords & Tabs

 

Automatic Chords & Tabs

Less Than Jake Chords & Tabs

Version: 1 Type: Tab 0 ratings
1 star 2 stars 3 stars 4 stars 5 stars
comments

Automatic Tab

 There's no one around who can figure less than jake songs out.
This is 100%   right. One of the best Ska/Punk songs around.
  SrSmith

  Intro/Chorus

 1st time
e|---------------------------------------------------------------------------|
B|---------------------------------------------------------------------------|
G|-7-7-77--------4-4-44------------------------------------------------------|
D|-7-7-77-55-5-5-4-4-44-5-5-55/7-7-------------------------------------------|
A|-5-5-55-55-5-5-2-2-22-5-5-55/7-7-------------------------------------------|
E|--------33-3-3--------3-3-33/5-5-------------------------------------------|

  2nd time
e|---------------------------------------------------------------------------|
B|---------------------------------------------------------------------------|
G|-7-7-77--------4-4-44------------------------------------------------------|
D|-7-7-77-55-5-5-4-4-44-7-7--------------------------------------------------|
A|-5-5-55-55-5-5-2-2-22-7-7--------------------------------------------------|
E|--------33-3-3--------5-5--------------------------------------------------|

  
  Verse (Ska style, use fast chord changes)
[ Tab from: http://www.guitartabs.cc/tabs/l/less_than_jake/automatic_tab.html ]
  1st time
e|-5-5-5-5-55-x-55-5-7-7-77-x-55-5-5-33-3-33-3-3-3-3-333/5-5-5-5-55-5-5------|
B|-7-7-7-7-77-x-77-7-8-8-88-x-55-5-5-33-3-33-3-3-3-3-333/5-5-5-5-55-5-5------|
G|-7-7-7-7-77-x-77-7-9-9-99-x-66-6-6-44-4-44-4-4-4-4-444/6-6-6-6-66-6-6------|
D|-7-7-7-7-77-x-77-7-9-9-99---77-7-7-55-5-55-5-5-5-5-555/7-7-7-7-77-7-7------|
A|-5-5-5-5-55---55-5-7-7-77--------------------------------------------------|
E|-5-5-5-5-55---55-5-7-7-77--------------------------------------------------|

  2nd time

e|-5-5-5-5-55-x-55-5-7-7-77-x-55-5-5-33-3-33-x-5-5-555-5-5-5-5-55-5-5--------|
B|-7-7-7-7-77-x-77-7-8-8-88-x-55-5-5-33-3-33-x-7-7-777-5-5-5-5-55-5-5--------|
G|-7-7-7-7-77-x-77-7-9-9-99-x-66-6-6-44-4-44-x-7-7-777-6-6-6-6-66-6-6--------|
D|-7-7-7-7-77-x-77-7-9-9-99---77-7-7-55-5-55-x-7-7-777-7-7-7-7-77-7-7--------|
A|-5-5-5-5-55---55-5-7-7-77--------------------------------------------------|
E|-5-5-5-5-55---55-5-7-7-77--------------------------------------------------|

  interlude ( hey! bit ) Ska fast style ( I can't figure out the rythme so you
  will have to figure it out yourself)
e|-2-----5-----3-----7-------------------------------------------------------|
B|-4-----5-----4-----9-------------------------------------------------------|
G|-4-etc-6-etc-5-etc-9-etc---------------------------------------------------|
D|-4-----7-----5-----9-------------------------------------------------------|
A|-2-----------3-----7-------------------------------------------------------|
E|-2-----------3-----7-------------------------------------------------------|

End on D  then play it 1234r1234


| /  slide up
| \  slide down
| r  rest
| x  Mute note

===============================================================================
Comments