Less Than Jake - Als War Chords & Tabs

 

Als War Chords & Tabs

Less Than Jake Chords & Tabs

Version: 1 Type: Tab 0 ratings
1 star 2 stars 3 stars 4 stars 5 stars
comments

Als War Tab

   
                                              Al's War by Less Than jake

Intro (x2)
e|-------x-------x-------x--------|
B|-------x-------x-------x--------|
G|-------x-4-4-4-x-------x-----6--|
D|-4-4-4-x-4-4-4-x-8-8-9-x-4-4-6--|
A|-4-4-4-x-6-6-6-x-8-8-9-x-4-4-4--|
E|-2-2-2-x-------x-6-6-7-x-2-2----|

Bridge (x1)
e|---x-x-x-x-x-x-x-x-x-x-x---------|
B|---x-x-x-x-x-x-x-x-x-x-x-------x-|
G|---x-x-x-x-x-x-x-x-x-x-x-4-4-4-x-|
D|-4-x-x-x-x-x-x-x-x-x-x-x-4-4-4-x-|
A|-4-x-x-x-x-x-x-x-x-x-x-x-6-6-6-x-|
E|-2-x-x-x-x-x-x-x-x-x-x-x-------x-|
[ Tab from: http://www.guitartabs.cc/tabs/l/less_than_jake/als_war_tab.html ]
The verse is the same as the intro but strummed faster

Chorus (x4)
e|------------------------------------------|
B|------------------------------------------|
G|-6-6-6-6-4-4-4-10-11-11-11-10-11-11-11-10-|
D|-6-6-6-6-4-4-4-10-11-11-11-10-11-11-11-10-|
A|-4-4-4-4-2-2-2-8--9--9--9--8--9--9--9--8--|
E|------------------------------------------|

Post-Chorus (x1)
e|-------x--------|
B|-------x--------|
G|-8-8-8-x--------|
D|-8-8-8-x-8-8-9--|
A|-6-6-6-x-8-8-9--|
E|-------x-6-6-7--|

Then the bridge, followed by the chorus.

Enjoy, By Stu.




Comments