Less Than Jake - All My Best Friends Are Metalheads Chords & Tabs

 

All My Best Friends Are Metalheads Chords & Tabs

Less Than Jake Chords & Tabs

Version: 1 Type: Tab 1 rating
1 star 2 stars 3 stars 4 stars 5 stars
comments

All My Best Friends Are Metalheads Tab

   
Less Than Jake - All My Best Friends Are Metal Heads

X = Mute
D = Downstroke
U = Upstroke
/ = Slide

Intro

    D  U  D  U  D  U  D  U  D  U  D  U  D      U  D
e|--------X--7--X-----X--5--X--5--X--5--5-/-7--7--7--------------------------|
B|--9--9--X--7--X--9--X--5--X--5--X--5--5-/-7--7--7--------------------------|
G|--9--9--X--8--X--9--X--6--X--6--X--6--6-/-8--8--8--------------------------|
D|--9--9--X--9--X--9--X--7--X--7--X--7--7-/-9--9--9--------------------------|
A|---------------------------------------------------------------------------|
E|---------------------------------------------------------------------------|

    D  U  D  U  D  U  D   U   U  D  U  D       U  D
e|--------X--X--X--X--X------------------------------------------------------|
B|--9--9--X--X--X--X--X--14--14-14-14-14-/-16-16-16--------------------------|
G|--9--9--X--X--X--X--X--14--14-14-14-14-/-16-16-16--------------------------|
D|--9--9--X--X--X--X--X--14--14-14-14-14-/-16-16-16--------------------------|
A|---------------------------------------------------------------------------|
E|---------------------------------------------------------------------------|

    D  U  D  U  D  U  D  U  D  U  D  U  D      U  D
e|--------X--7--X-----X--5--X--5--X--5--5-/-7--7--7--------------------------|
B|--9--9--X--7--X--9--X--5--X--5--X--5--5-/-7--7--7--------------------------|
G|--9--9--X--8--X--9--X--6--X--6--X--6--6-/-8--8--8--------------------------|
D|--9--9--X--9--X--9--X--7--X--7--X--7--7-/-9--9--9--------------------------|
A|---------------------------------------------------------------------------|
E|---------------------------------------------------------------------------|

    D  U  D  U  D  U  D  U  
e|--------X--7--X-----7--5--|
B|--9--9--X--7--X--9--7--5--|
G|--9--9--X--8--X--9--8--6--|
D|--9--9--X--9--X--9--9--7--|
A|--------------------------|
E|--------------------------|
[ Tab from: http://www.guitartabs.cc/tabs/l/less_than_jake/all_my_best_friends_are_metalheads_tab.html ]
Verse Part 1 (Clean Ska) (x3)
e|-x-7-x-7-x-7-x-7-x-5-x-5-x-7-x-7------------------------------------|
B|-x-9-x-9-x-9-x-9-x-5-x-5-x-7-x-7------------------------------------|
G|-x-9-x-9-x-9-x-9-x-6-x-6-x-8-x-8------------------------------------|
D|-x-7-x-7-x-7-x-7-x-7-x-7-x-9-x-9------------------------------------|
A|-x-7-x-7-x-7-x-7-x-7-x-7-x-9-x-9------------------------------------|
E|-x-7-x-7-x-7-x-7-x-5-x-5-x-7-x-7------------------------------------|
Would you think its strange....

Verse Part 2 (Distortion) (x1)
e|--------------------------------------------------------------------|
B|--------------------------------------------------------------------|
G|-9-9-9-9-9----9-9-x-x-----------------------------------------------|
D|-9-9-9-9-9----9-9-x-x-7-7/-9----------------------------------------|
A|-7-7-7-7-7----7-7-x-x-7-7/-9----------------------------------------|
E|----------------------5-5/-7----------------------------------------|

Verse Part 3 (Clean Ska) (x3)
e|-x-5-x-5-x-5-x-5-x-7-x-7-x-7-x-7-x----------------------------------|
B|-x-5-x-5-x-5-x-5-x-9-x-9-x-9-x-9-x----------------------------------|
G|-x-6-x-6-x-6-x-6-x-9-x-9-x-9-x-9-x----------------------------------|
D|-x-7-x-7-x-7-x-7-x-7-x-7-x-7-x-7-x----------------------------------|
A|-x-7-x-7-x-7-x-7-x-7-x-7-x-7-x-7-x----------------------------------|
E|-x-5-x-5-x-5-x-5-x-7-x-7-x-7-x-7-x----------------------------------|
Would you know about strength and convitions...

Verse Part 4 x1
e|--------------------------------------------------------------------|
B|--------------------------------------------------------------------|
G|--------------------------------------------------------------------|
D|-9-----9------9------9----------------------------------------------|
A|-9-----9------9------9----------------------------------------------|
E|-7-----7------7------7----------------------------------------------|
To really discover.....

Chorus (Dist.)  (x3)
e|--------------------------------------------------------------------|
B|--------------------------------------------------------------------|
G|--------------------------------------------------------------------|
D|-2-2-/-7---7-/-9-9-9-9-9--------------------------------------------|
A|-2-2-/-7---7-/-9-9-9-9-9--------------------------------------------|
E|-0-0-/-5---5-/-7-7-7-7-7--------------------------------------------|
Keep us from sayin anything....

x1
e|--------------------------------------------------------------------|
B|--------------------------------------------------------------------|
G|--------------------------------------------------------------------|
D|-7-----------7----------7----------7--------------------------------|
A|-7-----------7----------7----------7--------------------------------|
E|-5-----------5----------5----------5--------------------------------|
Your one in the crowd....

Comments