Less Than Jake - 9th At Pine Chords & Tabs

 

9th At Pine Chords & Tabs

Less Than Jake Chords & Tabs

Version: 2 Type: Bass Tab 0 ratings
1 star 2 stars 3 stars 4 stars 5 stars
comments

9th At Pine Bass Tab

Song: 9th at Pine
Artist: LESS THAN JAKE
Tabbed By: Andreas Skotheim (asskt2001@skateboard.com)

intro:

1-----------------------------
2-----------------------------
3----------------6-6-6-6-6-6-6
4--3-3-3-3-3-3-3--------------

verse:

1-------------------------------------------------------
2-------------------------------------------------------
3------------1-1-1-1-1-1-6-6-6-6-5-5-5-5-3-3-3-3-1-1-1-1
4--3-3-3-3-3--------------------------------------------

1st chorus:

1----------------------------------------------------------------
2------0-----0--------5-6-6-5--------0-1-3-1-0-1------5---6-56-5-
3--1-1---1-1---1--6-6---------6--1-1--------------6-6---6-------6
4----------------------------------------------------------------

1---------------------------------------------------------------------------
2------0-----0--------5-6-6-5--------0-1-3-1-0-1----------------------------
3--1-1---1-1---1--6-6---------6--1-1---------------------------6-6-6-6-6-6-6
4------------------------------------------------3-3-3-3-3-3-3--------------

verse: 4x
[ Tab from: http://www.guitartabs.cc/tabs/l/less_than_jake/9th_at_pine_btab_ver_2.html ]
1st chorus: 1x     at the end you play the start of the 1st chorus and ends 
with a pick on
                   the 1.

bridge:

1-------------------------------------------------------------------
2-------------------------------------------------------------------
3--1-1-111-------6-6-666-------1-1-111-----------3-3-3-3-3-6-6-6-6-6  2x
4----------4-444---------4-444---------3-3-3-333--------------------

2nd chorus:

1---------------------------------------------------------------------
2---------------------------------------------------------------------
3--1-1-111-------6-666666----------1-111111-0-000000----------6-666666  2x
4----------4-444----------4-444444-------------------3-333333---------

1-------------------------------------              
1---------------------------------------
2-------------------------------------              
2---------------------------------------
3--1-111111-0-000000----------6-666666  2 1/2 than  
3--------------------6-666666-6-666666-1
4--------------------3-333333---------              
4--3-333333-3-333333--------------------

Tabbed By AnDrEaS!
Comments