Less Than Jake - 867-5309 Chords & Tabs

 

867-5309 Chords & Tabs

Less Than Jake Chords & Tabs

Version: 1 Type: Bass Tab 0 ratings
1 star 2 stars 3 stars 4 stars 5 stars
comments

867-5309 Bass Tab

Song: 867-5309(Jenny)
Artist: Tommy Tutone/Less Than Jake
Tabbed By: Insomniac. If anything is wrong, email me at, 
crossfire182@yahoo.com
(It is my first attempt at tabbing, so there are probably mistakes)

Srandard Tuning: EADG

Riff 1(intro and verse, the rythem varies in the verse)
G|----------------------------
D|----------------------------
A|--6-6-1-1-3-3----6-6-1-1-3-3
E|3--------------3------------
[ Tab from: http://www.guitartabs.cc/tabs/l/less_than_jake/867_5309_btab.html ]
Riff 2(pre-chorus & post-chorus)
G|-------------------------------
D|-------------------------------
A|--6-6-1-1-3-3---5-5-3-2-0-0-3-3
E|3-------------3----------------

Riff 3(chorus)
G|---------------
D|---------------
A|--3-5-6-6-5-3-5
E|5-------------- 

Riff 4(bridge, i tabbed this on a old stereo so i couldn't
tell if there was more bass in the bridge, sorry)
G|-----------------
D|-----------------
A|--7-7-6-5-4-4-3-3
E|9----------------
Order
Riff 1 x 5
Riff 2 x 1
Riff 3 x 3
Riff 1 x 1
Riff 2 x 1
Riff 1 x 3
Riff 2 x 1
Riff 3 x 3
Riff 1 x 1
Riff 2 x 1
Riff 4 x 2
Riff 1 x 3
Riff 3 x 3
Riff 1 till the end(I think he throws
A|--5-5-3-2-0-0-3-3
E|3----------------
in but I don't know where)

And That's it
Comments