Les Vrp - Leo Chords & Tabs

 

Leo Chords & Tabs

Les Vrp Chords & Tabs

Version: 1 Type: Tab 0 ratings
1 star 2 stars 3 stars 4 stars 5 stars
comments

Leo Tab

LEO
Les VRP - Vacances Prolongées



INTRO/REFRAIN


|---8---9---8---8--7---8--|
|---9---9---8---9--8---9--|
|--10--10---9--10--9--10--|
|--10--11--10--10--9--10--|
|---8--11--10---8--7---8--|
|-------9---8-------------|


RIFF 1

|---8---9---8---8---8--|     |---9---9---8---8---9---8---8--|
|---9---9---9---8---9--|     |---9--10---8---9--10---9---8--|
|--10--10--10---9--10--| X 2 |--10--11---9--10--11--10---9--|
|--10--11--10--10--10--|     |--11--11--10--10--11--10--10--|
|---8--11---8--10---8--|     |--11---9--10---8---9---8--10--|
|-------9-------8------|     |---9-------8---------------8--|


BREAK
[ Tab from: http://www.guitartabs.cc/tabs/l/les_vrp/leo_tab.html ]
|---8--6--|
|---9--8--|
|--10--8--|
|--10--8--|
|---8--6--|
|---------|


RIFF 2

|---8---9---8---8---8--|     |---9---8---8---8--|
|---9---9---9---8---9--|     |--10---9---8---9--|
|--10--10--10---9--10--| X 2 |--11--10---9--10--| X 2
|--10--11--10--10--10--|     |--11--10--10--10--|
|---8--11---8--10---8--|     |---9---8--10---8--|
|-------9-------8------|     |-----------8------|



ENCHAINEMENT DES PARTIES

	Intro/Refrain X 2
	Riff 1
	Break X 3
	Riff 2
	Intro/Refrain X 2
	Riff 2
	Intro/Refrain X 2
	Riff 2
	Intro/Refrain X 2
	Riff 2 (accords joués seulement une fois pour la 1ère barre)
	Intro/Refrain X 2
	Riff 2
	Intro/Refrain X 2
Comments