Les Stitches - Jungle Man Chords & Tabs

 

Jungle Man Chords & Tabs

Les Stitches Chords & Tabs

Version: 1 Type: Bass Tab 0 ratings
1 star 2 stars 3 stars 4 stars 5 stars
comments

Jungle Man Bass Tab

Band : LES Stitches
Song : Jungle Man
Tabbed By : Paul Comrie-Thomson
E-Mail : p_comrie_thomson@users.basstabarchive.com


Riff #1

G |--------------------|
D |--------------------|
A |---------------0-2--|
E |-0-0-0-0--3-3-------|

Riff #2
[ Tab from: http://www.guitartabs.cc/tabs/l/les_stitches/jungle_man_btab.html ]
G |----------------------------------------|
D |----------------------------------------|
A |-5-5-5-5-5-5-5-5-5-5-5-5-5-5-5--3-------|
E |----------------------------------3-2-0-|

It is basically just Riff #1 repeated over and over with Riff #2 coming in every so often.
(Note: There may be some variations towards the end)
Comments