Les Savy Fav - No Sleeves Chords & Tabs

 

No Sleeves Chords & Tabs

Les Savy Fav Chords & Tabs

Version: 1 Type: Bass Tab 0 ratings
1 star 2 stars 3 stars 4 stars 5 stars
comments

No Sleeves Bass Tab

Band: Les Savy Fav
Song: No Sleeves
Album: Inches/ Go Forth

The main riff is correct but I'm not totally convinced the second riffs are spot on. here's hoping.

Main Riff
G-----------------------------------------|
D-----------------------------------------|
A----5-5----------1-1-----0-0-------------|
E-----------1-1--------------------3-3----|
[ Tab from: http://www.guitartabs.cc/tabs/l/les_savy_fav/no_sleeves_btab.html ]
Second Riff part 1 x 2
G--------------------------------------------------|
D--------------------------------------------------|
A-----5----5-5--3---3-3---1----1-1-----------------|
E------------------------------------------1----1--|

part 2 x 1
G-----------------------------------------|
D-----------------------------------------|
A----3-3-3-3------5-5---------------------|
E------------1-1--------------------------|

Second Riff part 1 x 1

part 2 x 4

Main Riff until end


Tom

Bassmonkey24@hotmail.com
Comments