Les Sales Majestes - Sois Pauvre Et Tais-toi Chords & Tabs

 

Sois Pauvre Et Tais-toi Chords & Tabs

Les Sales Majestes Chords & Tabs

Version: 1 Type: Tab 0 ratings
1 star 2 stars 3 stars 4 stars 5 stars
comments

Sois Pauvre Et Tais-toi Tab

Les Sales MajestÚs - Sois pauvre et tais-toi

Intro

E|---------------------|
B|---------------------|
G|-----------8----7----|
D|-----------8----7----|
A|-----------6----5----|
E|---------------------|


E|---------------------|---------------------|---------------------|---------------------|
B|---------------------|---------------------|---------------------|---------------------|
G|-5----5----5---------|---------------------|---------------------|-----------8----7----|
D|-5----5----5----5----|-6----6----6----5----|-3----3----3----5----|-5----5----8----7----|  x4
A|-3----3----3----5----|-6----6----6----5----|-3----3----3----5----|-5----5----6----5----|
E|----------------3----|-4----4----4----3----|-1----1----1----3----|-3----3--------------|




E|---------------------|---------------------|
B|---------------------|---------------------|
G|-5----5----5----5----|-5----5----8----7----|
D|-5----5----5----5----|-5----5----8----7----| x 3
A|-3----3----3----3----|-3----3----6----5----|
E|---------------------|---------------------|


E|---------------------|---------------------|
B|---------------------|---------------------|
G|-5----5----5----5----|-5-------------------|
D|-5----5----5----5----|-5-------------------|
A|-3----3----3----3----|-3-------------------|
E|---------------------|---------------------|


Verse

E|---------------------|---------------------|---------------------|---------------------|
B|---------------------|---------------------|---------------------|---------------------|
G|-5----5----5----5----|---------------------|---------------------|---------------------|
D|-5----5----5----5----|-6----6----6----6----|-3----3----3----3----|-5----5----5----5----| x4
A|-3----3----3----3----|-6----6----6----6----|-3----3----3----3----|-5----5----5----5----|
E|---------------------|-4----4----4----4----|-1----1----1----1----|-3----3----3----3----|


Bridge

E|-------|------|-------|------|-------|------|--------|--------|-------------|-------------|
B|-------|------|-------|------|-------|------|--------|--------|-------------|-------------|
G|-------|------|-------|------|-------|------|--------|--------|-------------|-------------|
D|-6-----|------|-5-----|------|-6-----|------|-5------|-5------|-5-----5-----|-5-----5-----|
A|-6-----|------|-5-----|------|-6-----|------|-5------|-5------|-5-----5-----|-5-----5-----|
E|-4-----|------|-3-----|------|-4-----|------|-3------|-3------|-3-----3-----|-3-----3-----|


Chorus

E|---------------------|---------------------|---------------------|---------------------|
B|---------------------|---------------------|---------------------|---------------------|
G|-5----5----5----5----|---------------------|---------------------|---------------------|
D|-5----5----5----5----|-6----6----6----6----|-3----3----3----3----|-5----5----5----5----| x4
A|-3----3----3----3----|-6----6----6----6----|-3----3----3----3----|-5----5----5----5----|
E|---------------------|-4----4----4----4----|-1----1----1----1----|-3----3----3----3----|



Verse


Bridge


Chorus


Bridge


Solo

  Background guitar play Verse + Bridge

E|---------------------------|---------------------------------|
B|-13---15---16--13--15--13--|-16--13--15--13--16--13--15--13--|
G|---------------------------|---------------------------------|
D|---------------------------|---------------------------------|
A|---------------------------|---------------------------------|
E|---------------------------|---------------------------------|
[ Tab from: http://www.guitartabs.cc/tabs/l/les_sales_majestes/sois_pauvre_et_tais_toi_tab.html ]
E|---------------------------------|---------------------------------|
B|-16--13--15--13--16--13--15--13--|-16--13--15--13--16--13--15--13--|
G|---------------------------------|---------------------------------|
D|---------------------------------|---------------------------------|
A|---------------------------------|---------------------------------|
E|---------------------------------|---------------------------------|



E|---------------------------------|---------------------------------|
B|-16--13--15--13--16--13--15--13--|-16--13--15--13--16--13--15--13--|
G|---------------------------------|---------------------------------|
D|---------------------------------|---------------------------------|
A|---------------------------------|---------------------------------|
E|---------------------------------|---------------------------------|

E|---------------------------------|---------------------------------|
B|-16--13--15--13--16--13--15--13--|-16--13--15--13--16--13--15--13--|
G|---------------------------------|---------------------------------|
D|---------------------------------|---------------------------------|
A|---------------------------------|---------------------------------|
E|---------------------------------|---------------------------------|


E|---------------------|---------------------|
B|-16---16---15---15---|-13---13---11---11---|
G|---------------------|---------------------|
D|---------------------|---------------------|
A|---------------------|---------------------|
E|---------------------|---------------------|

E|---------------------|---------------------|
B|-13---13---11---11---|-9----9----8----8----|
G|---------------------|---------------------|
D|---------------------|---------------------|
A|---------------------|---------------------|
E|---------------------|---------------------|



E|---------------------|---------------------|
B|-16---16---15---15---|-13---13---11---11---|
G|---------------------|---------------------|
D|---------------------|---------------------|
A|---------------------|---------------------|
E|---------------------|---------------------|

E|---------------------|---------------------|
B|-13---13---11---11---|-9----9----8----8----|
G|---------------------|---------------------|
D|---------------------|---------------------|
A|---------------------|---------------------|
E|---------------------|---------------------|



E|---------------------------|---------------------------------|
B|-13---15---16--13--15--13--|-16--13--15--13--16--13--15--13--|
G|---------------------------|---------------------------------|
D|---------------------------|---------------------------------|
A|---------------------------|---------------------------------|
E|---------------------------|---------------------------------|

E|---------------------------------|---------------------------------|
B|-16--13--15--13--16--13--15--13--|-16--13--15--13--16--13--15--13--|
G|---------------------------------|---------------------------------|
D|---------------------------------|---------------------------------|
A|---------------------------------|---------------------------------|
E|---------------------------------|---------------------------------|



E|---------------------------------|---------------------------------|
B|-16--13--15--13--16--13--15--13--|-16--13--15--13--16--13--15--13--|
G|---------------------------------|---------------------------------|
D|---------------------------------|---------------------------------|
A|---------------------------------|---------------------------------|
E|---------------------------------|---------------------------------|

E|-----------------|--------|
B|-13----13---12---|-12-----|
G|-----------------|--------|
D|-----------------|--------|
A|-----------------|--------|
E|-----------------|--------|




E|-----------------|--------|
B|-13----13---12---|-12-----|
G|-----------------|--------|
D|-----------------|--------|
A|-----------------|--------|
E|-----------------|--------|


Verse


Bridge


Chorus x4


End

E|--------|
B|--------|
G|-5------|
D|-5------|
A|-3------|
E|--------|


Tab by hiphop :D
Comments