Les Rythmes Digitales - Jacques Your Body Chords & Tabs

 

Jacques Your Body Chords & Tabs

Les Rythmes Digitales Chords & Tabs

Version: 2 Type: Bass Tab 0 ratings
1 star 2 stars 3 stars 4 stars 5 stars
comments

Jacques Your Body Bass Tab

                    Jaqcues Your Body (Make Me Sweat)
                         Les Rhythyms Digitales
Phatt as hell and easy to play.  Repeat ad nauseum.  Tabbed by BobulatorM, email tab@foales.demon.co.uk


                                                                        
G---||---------p--------p--------p--------p--------p--------p-----------
D---||*--------9--------9--------9--------9--------9--------9-----------
A---||*--s--s-----t--t-----t--t-----t--t-----t--t-----t--t-----t--t-----
E---||---7--x-----7--x-----7--x-----7--x-----7--x-----7--x-----7--x-----
                                                                        

                    4x                                                  
G---p--p--------p---||--||----------------------------------------||----
D---9--7--------9--*||--||*--------9--7--6-----------------------*||----
A---------t--t-----*||--||*--------------------5--5--5--5--5-----*||----
E---------7--x------||--||---7--7-----------7-----------------7---||----
                                                                        



========================================================================
==                       TABLATURE EXPLANATION                        ==
========================================================================
[ Tab from: http://www.guitartabs.cc/tabs/l/les_rythmes_digitales/jacques_your_body_btab_ver_2.html ]
----------                ----------                ----t---
----5h8--- Hammeron       ----(8)--- Ghost          ----6--- Tap
----------                ---------- Note           --------
----5p8--- Pulloff        ----------                --------

----------                ----------                -----p--
----5/8--- Slide Up       -----x---- Dead           -----7-- Pop
----------                ---------- Note           --s-----
----5\8--- Slide Down     ----------                --5----- Slap 

----------                ||------|| Repeat         --------
----5~~~-- Vibrato        ||*----*||                ---5^--- Bend
----------                ||*----*||                --------
----------                ||------||                --------

----------                ----------                --------
-4:------- Time           ----------                --------
-4:------- Signature      ----------                --------
----------                ----------                --------

========================================================================
==            Created with a demo version of BUCKET O' TAB            ==
==              tablature creation software for Windows               ==
==                  For more info email gse@his.com                   ==
========================================================================
Comments