Les Pistolets Roses - Libert Chords & Tabs

 

Libert Chords & Tabs

Les Pistolets Roses Chords & Tabs

Version: 1 Type: Tab 0 ratings
1 star 2 stars 3 stars 4 stars 5 stars
comments

Libert Tab

Intro(2x)

----------------------------------------------------------
----------------------------------------------------------
----------------------------------------------------------	
-12-14-14-12-14-14-12-14-14-12-14-14-14-15-15-
----------------------------------------------------------
----------------------------------------------------------

----------------------------------------------------------
----------------------------------------------------------
----------------------------------------------------------
-12-14-14-12-14-14-12-14-14-12-14-14-14-10-10-
----------------------------------------------------------
----------------------------------------------------------

Verse
------------------------------------------------------------------------------
------------------------------------------------------------------------------
------------------------------------------------------------------------------
-7----------5---------3-----------------10-10-10-10----9-9-9-9----5-5-- 2x
-5-(14xpm)--3-(14xpm)-1-(14xpm)--8--8--8--8-----7-7-7-7----3-3--
------------------------------------------------------------------------------

Pre-chorus

-------------------------------------------------------------------
-------------------------------------------------------------------
-------------------------------------------------------------------
---3-3-3-3-3-3-5-5-5-5-5-5--7-7-7-7-7-7--5-5-5-5-5-5-5-5-
---1-1-1-1-1-1-3-3-3-3-3-3--5-5-5-5-5-5--3-3-3-3-3-3-3-3-
-------------------------------------------------------------------

----------------------------------------------------------------------
----------------------------------------------------------------------
----------------------------------------------------------------------
---3-3-3-3-3-3-5-5-5-5-5-5-3-3-3-3-3-3-3-3-5-5-5-5-5-5-5-5-
---1-1-1-1-1-1-3-3-3-3-3-3-1-1-1-1-1-1-1-1-3-3-3-3-3-3-3-3-
----------------------------------------------------------------------
                                        .  .  .  .  .  .  .  .  .   .  .  .  .  .  .  .  

Chorus(2x)

------------------------------------------------------
------------------------------------------------------
------------------------------------------------------
--7-7-7-7-7-------------5-5-5-5-5--3-3-----------
--5-5-5-5-5-3-3-3-3-3-3-3-3-3-3--1-1-5-5-5-5--
--------------1-1-1-1-1-------------------3-3-3-3--

-----------------------------------------------------
-----------------------------------------------------
-----------------------------------------------------
--7-7-7-7-7-------------5-5-5-5-5--3-3-3-3-3-3-
--5-5-5-5-5-3-3-3-3-3-3-3-3-3-3--1-1-1-1-1-1-
--------------1-1-1-1-1----------------------------

Repeat Intro(1x)


Verse
Pré-chorus
Chorus


Interlude

--------------------------------------------------------
--------------------------------------------------------
--------------------------------------------------------
---10----x-x-x9----x-x-x12----x-x-x10------10>--
---8-----x-x-x7----x-x-x10----x-x-x8--------8>---
--------------------------------------------------------


Solo(4x palm mute, 2x normal)
[ Tab from: http://www.guitartabs.cc/tabs/l/les_pistolets_roses/libert_tab.html ]
---------------------------------------------------------------------------------
---------------------------------------------------------------------------------
---------0-2-0--------------0-2-0-----------------0---------------------------
--0-2-3--------3-2--0-2-3--------3-2-----0-2-3---3-2-0-------0-1-3-1-0--
------------------------------------------3-------------------1-3-------------3-
----------------------------------------------------------------------------------

At the end
-------------------------------------------------------------
-------------------------------------------------------------
-------------------------------------------------------------3x
--12-12-12-14-14-14-15-15-15-17-17-17-19-19-20---
-------------------------------------------------------------
-------------------------------------------------------------

At the third time
--------------------------
--------------------------
--------------------------
--------------------------
-20-19(16x)-17(9x)-/--
---------------------------
---------------------------

Chorus


Ending
-----------------------------------------------------------
-----------------------------------------------------------
-----------------------------------------------------------
-14-15-15-14-15-15-14-15-15-14-15-15-14-15-15--
-----------------------------------------------------------
-----------------------------------------------------------

--------------------------------------
--------------------------------------
--------------------------------------
-12-14-14-12-14-14--14-14-12---
--------------------------------------
--------------------------------------

----------------------------------------------------------
----------------------------------------------------------
----------------------------------------------------------
14-15-15-14-15-15-14-15-15-14-15-15-14-15-15--
----------------------------------------------------------
----------------------------------------------------------

-------------------------------------------------
-------------------------------------------------
-------------------------------------------------
12-14-14-12-14-14-14-17-17-17-15-15-15-
-------------------------------------------------
-------------------------------------------------

--------------------
--------------------
--------------------
-7------9-------7---
-5------7-------5---
--------------------

Les bureaucrates viennent de débarquer, à cent mille par année
Il faut les voir, ils sont trop beaux
Liberté
Dans le seul but d'éliminer, le droit à l'homme de s'exprimer
C'est toujours la loi des bourreaux
Liberté

Imposer au peuple ce qu'il doit écouter
pieds et poings liés

Qui êtes-vous pour décider
de c'qu'on doit dire c'qu'on doit crier
Une commission qui gouverne les pensées
Ces bureaucrates qui croient tout savoir sur le bien ou l'mal
Utilisent leurs pouvoirs 
pour me faire taire et me crucifier

Les bienfaiteurs de l'humanité, ont le pouvoir de censurer 
Tous ceux qui en disent trop
Liberté
Je refuse de sacrifier, mes droits, ma raison et mes idées
Pour ces gens qui se croient un peu trop
Liberté

Imposer au peuple ce qu'il doit écouter
pieds et poings liés

Qui êtes-vous pour décider de c'qu'on doit dire c'qu'on doit crier
Une commission qui gouverne les pensées
Ces bureaucrates qui croient tout savoir sur le bien ou l'mal
Utilisent leurs pouvoirs pour me faire taire et me crucifier

(Discours parlé) Ma radio, c'est ma radio
Liberté, j'ai écris ton nom sur toutes les ondes de radio et de télévision
Liberté, j'ai écris ton nom dans tous mes éditoriaux
Et aucunes commission administrative en temps de paix ne doit 
supprimer le droit de cette liberté
Merci
Libre !

Qui êtes-vous pour décider de c'qu'on doit dire c'qu'on doit crier
Une commission qui gouverne les pensées
Ces bureaucrates qui croient tout savoir sur le bien ou l'mal
Utilisent leurs pouvoirs pour me faire taire et me crucifier


Comments