Les Marmottes Aplaties - Les Scouts Chords & Tabs

 

Les Scouts Chords & Tabs

Les Marmottes Aplaties Chords & Tabs

Version: 2 Type: Tab 0 ratings
1 star 2 stars 3 stars 4 stars 5 stars
comments

Les Scouts Tab

-------------------------------------------------------------------------------
		     LES SCOUTS-Les marmottes aplaties
-------------------------------------------------------------------------------

By:Fr?d?ric Hamel (http://derfpunk.multimania.com)

 Intro:
e|---------------------------------------------------------------------------|X2
B|---------------------------------------------------------------------------|
G|-------------------4-4-4-4--7-7-7-7----------------------------------------|
D|-7-7-7-7--4-4-4-4--4-4-4-4--7-7-7-7----------------------------------------|
A|-7-7-7-7--4-4-4-4--2-2-2-2--5-5-5-5----------------------------------------|
E|-5-5-5-5--2-2-2-2----------------------------------------------------------|

e|---------------------------------------------------------------------------|X2
B|---------------------------------------------------------------------------|
G|----------9-9-9-9--4-4-4-4--7-6--------------------------------------------|
D|-7-7-7-7--9-9-9-9--4-4-4-4--7-6--------------------------------------------|
A|-7-7-7-7--7-7-7-7--2-2-2-2--5-4--------------------------------------------|
E|-5-5-5-5-------------------------------------------------------------------|

e|---------------------------------------------------------------------------|X4
B|---------------------------------------------------------------------------|
G|-------------------4-4-4-4--7-7-7-7----------------------------------------|
D|-7-7-7-7--4-4-4-4--4-4-4-4--7-7-7-7----------------------------------------|
A|-7-7-7-7--4-4-4-4--2-2-2-2--5-5-5-5----------------------------------------|
E|-5-5-5-5--2-2-2-2----------------------------------------------------------|

e|---------------------------------------------------------------------------|X4
B|---------------------------------------------------------------------------|
G|----------9-9-9-9--4-4-4-4--7-6--------------------------------------------|
D|-7-7-7-7--9-9-9-9--4-4-4-4--7-6--------------------------------------------|
A|-7-7-7-7--7-7-7-7--2-2-2-2--5-4--------------------------------------------|
E|-5-5-5-5-------------------------------------------------------------------|

e|---------------------------------------------------------------------------|X4
B|---------------------------------------------------------------------------|
G|-------------------4-4-4-4--7-7-7-7----------------------------------------|
D|-7-7-7-7--4-4-4-4--4-4-4-4--7-7-7-7----------------------------------------|
A|-7-7-7-7--4-4-4-4--2-2-2-2--5-5-5-5----------------------------------------|
E|-5-5-5-5--2-2-2-2----------------------------------------------------------|
[ Tab from: http://www.guitartabs.cc/tabs/l/les_marmottes_aplaties/les_scouts_tab_ver_2.html ]
e|---------------------------------------------------------------------------|X4
B|---------------------------------------------------------------------------|
G|----------9-9-9-9--4-4-4-4--7-6--------------------------------------------|
D|-7-7-7-7--9-9-9-9--4-4-4-4--7-6--------------------------------------------|
A|-7-7-7-7--7-7-7-7--2-2-2-2--5-4--------------------------------------------|
E|-5-5-5-5-------------------------------------------------------------------|


e|---------------------------------------------------------------------------|X4
B|---------------------------------------------------------------------------|
G|----------7-7-7-7--4-4-4-4-9-----------------------------------------------|
D|-7-7-7-7--7-7-7-7--4-4-4-4-9-9---------------------------------------------|
A|-7-7-7-7--5-5-5-5--2-2-2-2-7-9---------------------------------------------|
E|-5-5-5-5---------------------7---------------------------------------------|

e|---------------------------------------------------------------------------|X2
B|---------------------------------------------------------------------------|
G|-----4-7-------------------------------------------------------------------|
D|-7-4-4-7-------------------------------------------------------------------|
A|-7-4-2-5-------------------------------------------------------------------|
E|-5-2-----------------------------------------------------------------------|

e|---------------------------------------------------------------------------|X4
B|---------------------------------------------------------------------------|
G|-------------------4-4-4-4--7-7-7-7----------------------------------------|
D|-7-7-7-7--4-4-4-4--4-4-4-4--7-7-7-7----------------------------------------|
A|-7-7-7-7--4-4-4-4--2-2-2-2--5-5-5-5----------------------------------------|
E|-5-5-5-5--2-2-2-2----------------------------------------------------------|

e|---------------------------------------------------------------------------|X4
B|---------------------------------------------------------------------------|
G|----------9-9-9-9--4-4-4-4--7-6--------------------------------------------|
D|-7-7-7-7--9-9-9-9--4-4-4-4--7-6--------------------------------------------|
A|-7-7-7-7--7-7-7-7--2-2-2-2--5-4--------------------------------------------|
E|-5-5-5-5-------------------------------------------------------------------|

e|---------------------------------------------------------------------------|
B|---------------------------------------------------------------------------|
G|-------------------7-7-7-7-7-6-7-6-----------------------------------------|
D|-7-7-7-7--4-4-4-4--7-7-7-7-7-6-7-6-7---------------------------------------|
A|-7-7-7-7--4-4-4-4--5-5-5-5-5-4-5-4-7---------------------------------------|
E|-5-5-5-5--2-2-2-2------------------5---------------------------------------|

e|---------------------------------------------------------------------------|
B|---------------------------------------------------------------------------|
G|-------------------7-7-7-7-7-9-7-6-4-2-------------------------------------|
D|-7-7-7-7--4-4-4-4--7-7-7-7-7-9-7-6-4-2-------------------------------------|
A|-7-7-7-7--4-4-4-4--5-5-5-5-5-7-5-4-2-0-------------------------------------|
E|-5-5-5-5--2-2-2-2----------------------------------------------------------|

===============================================================================
Visitez mon site web http://derfpunk.multimania.com pour toutes les tabs des Marmottes aplaties
de Reset et de plusieurs autres groupes.
Comments