Les Marmottes Aplaties - Bagnole Chords & Tabs

 

Bagnole Chords & Tabs

Les Marmottes Aplaties Chords & Tabs

Version: 1 Type: Tab 0 ratings
1 star 2 stars 3 stars 4 stars 5 stars
comments

Bagnole Tab

		     Bagnole
	     Les Marmottes Aplaties
		 Transcrit par:
     Ghislain Bourgeois ou Gus ou Hysteric 
                                                                      
Rythme 1:

----------------------------------------------------------
----------------------------------------------------------
6---------------------------------------------------------
6--(x16)-------6--------------4---------------------------
4--------------6-----(x8)-----4-----(x8)------------------
---------------4--------------2---------------------------

----------------------------------------------------------
----------------------------------------------------------
4--(x8)---------------------------------------------------
---------------4-----(x4)-----2-----(x4)------------------                                                                        
Rythme 2:
                                                                        
----------------------------------------------------------
----------------------------------------------------------
------------------------------6--x--x--x--x---------------
8--x--x--x--x--6--x--x--x--x--6--x--x--x--x--8--x--x--x--x
8--x--x--x--x--6--x--x--x--x--4--x--x--x--x--8--x--x--x--x
6--x--x--x--x--4--x--x--x--x-----------------6--x--x--x--x

----------------------------------------------------------
----------------------------------------------------------
------------------------------4-(x4)----------------------
6-(x4)---------4-(x4)------------------------6-(x4)-------                                                                        
Rythme 3:                                                                              
----------------------------------------------------------
----------------------------------------------------------
------------------6---------------------------------------
8--------6--------6--(x8)--8------------------------------
8--(x8)--6--(x8)--4--------8--(x8)------------------------
6--------4-----------------6------------------------------

----------------------------------------------------------
----------------------------------------------------------
------------------4-(x4)----------------------------------
6-(x4)---4-(x4)------------6-(x4)-------------------------                                                                    
Rythme 4:
                                                                        
----------------------------------------------------------
----------------------------------------------------------
----------11-/-12-\-11-/-12-\-11--------------------------
8-x-x-x-x-11-/-12-\-11-/-12-\-11---8-x-x-x-x-6-6-6-6------
8-x-x-x-x-9--/-10-\-9--/-10-\-9----8-x-x-x-x-6-6-6-6------
6-x-x-x-x--------------------------6-x-x-x-x-4-4-4-4------

----------------------------------------------------------
----------------------------------------------------------
------------------4-(x4)----------------------------------
6-(x4)---4-(x4)------------6-(x4)-------------------------

Pont:

----------------------------------------------------------
7--9--7--9--7---------------------------------------------
---------------8--8--8--8--8--6--6--6--6--6---------------
----------------------------------------------------------
----------------------------------------------------------
----------------------------------------------------------
[ Tab from: http://www.guitartabs.cc/tabs/l/les_marmottes_aplaties/bagnole_tab.html ]
----------------------------------------------------------
----------------------------------------------------------
4-(x8)----------------------------------------------------
--------------------6-(x8)--------------------------------                                                                        
Solo partie 1:                                                                        
----------------------------------------------------------
----------------------------------------------------------
6-x-x-x-x-6-6-x-x-x-x-6-----------------------------------
6-x-x-x-x-6-6-x-x-x-x-6-6-x-x-x-x-6-4-x-x-x-x-4-----------
4-x-x-x-x-4-4-x-x-x-x-4-6-x-x-x-x-6-4-x-x-x-x-4-----------
------------------------4-x-x-x-x-4-2-x-x-x-x-2-----------
(x2)                                                                        

----------------------------------------------------------
----------------------------------------------------------
4---------4-4---------4-----------------------------------
------------------------4---------4-2---------2-----------
(x2)

Solo partie 2:
                                                                        
----------------------------------------------------------
----------------------------------------------------------
6--8--6--8--6---------------------------------------------
----------------------------------------------------------
----------------------------------------------------------
----------------------------------------------------------
(x8)

----------------------------------------------------------
----------------------------------------------------------
4-(x10)----------------------------------------------------
-------4-(x5)-2-(x5)--------------------------------------                                       (x8)
                                
Solo partie 3:
                                                                   
---6-----6-----6--8--6------------------------------------
---6-----6-----6--8--6------------------------------------
6-----6-----6-----------8--6--8--8--8--8--6--5--6--5------
----------------------------------------------------------
----------------------------------------------------------
----------------------------------------------------------
(x4)                                                    

----------------------------------------------------------
----------------------------------------------------------
4-(x8)----------------------------------------------------
-------4-(x4)-2-(x4)--------------------------------------                                       (x4)

Fin:

----------------------------------------------------------
----------------------------------------------------------
--6-------------------------------------------------------
----------------------------------------------------------
----------------------------------------------------------
----------------------------------------------------------

----------------------------------------------------------
----------------------------------------------------------
--4-------------------------------------------------------
----------------------------------------------------------                                       

Ordre:

Rythme 1 (Palm mute)
Rythme 1
Rythme 2 (x2)
Rythme 3 (x2)
Pont
Rythme 1 (x2)
Rythme 4 (x2)
Rythme 1 (x4)
Rythme 1 (Palm mute)
Rythme 1 
Rythme 2 (x2)
Rythme 3 (x2)
Pont
Solo partie 1
Solo partie 2
Solo partie 3
Fin

Alors c'est tout!! Il y a peut-être quelques petites erreurs minimes, 
mais le tout sonne pas mal juste. Pour la basse, j'ai mis le strict 
minimum, je ne suis pas bassiste. Sébastien y met quelques petites 
modifications intéressantes, mais ceux que j'ai mis sont plus simples
et sonnent bien. Si vous trouvez une erreur, 
écrivez-moi à ghislain48@hotmail.com
Comments