Les Fourmis Malefiques - Invasion Chords & Tabs

 

Invasion Chords & Tabs

Les Fourmis Malefiques Chords & Tabs

Version: 2 Type: Tab 0 ratings
1 star 2 stars 3 stars 4 stars 5 stars
comments

Invasion Tab

#----------------------------------PLEASE NOTE--------------------------------#
#This file is the author's own work and represents their interpretation of the#
#song. You may only use this file for private study, scholarship, or research.#
#-----------------------------------------------------------------------------#
#-- File created with Instab - http://www.pconline.com/~smcarey/instab.html --#
#-----------------------------------------------------------------------------#

Author/Artist: Les Fourmis Mal?fiques
Title: Invasion
Album: Les fesses a l'air
-|----------------------------------------------------------------------------|
-|----------------------------------------------------------------------------|
-|---3-5------3-5-7-----------------------------------------------------------|
-|-2-3-5-5--2-3-5-7-----------------------------------------------------------|
-|-2-1-3-5--2-1-3-5-----------------------------------------------------------|
-|-0-----3--0-----------------------------------------------------------------|
   this/\is actually playedwith a weird effect that i cant understand...

-|----------------------------------------------------------------------------|
-|----------------------------------------------------------------------------|
-|-----------55555-----------55555-----------55555-----------77777------------|
-|-222222222-55555-222222222-55555-222222222-55555-22222222--77777------------|
-|-222222222-33333-222222222-33333-222222222-33333-222222222-55555------------|
-|-000000000-------000000000-------000000000-------000000000------------------|
  it is played twice then:

-|----------------------------------------------------------------------------|
-|----------------------------------------------------------------------------|
-|---9-7-55555555555----------------------------------------------------------|
-|-2-9-7-55555555555----------------------------------------------------------|
-|-2-7-5-33333333333----------------------------------------------------------|
-|-0--------------------------------------------------------------------------|
   play it 4 times then first guit(Frank)go back with the chorus while 2nd
[ Tab from: http://www.guitartabs.cc/tabs/l/les_fourmis_malefiques/invasion_tab_ver_2.html ]
------------------------------------------------------------------------------|
------------------------------------------------------------------------------|
------------------------------------------------------------------------------|
------------------------------------------------------------------------------|
------------------------------------------------------------------------------|
------------------------------------------------------------------------------|
 guit starts the SOLO

-|--------------------------------9h10h12-9-10-12-11-9----9-11-12119-12119----|
-|-------------------------9h10h12---------------------12---------------------|
-|-------------------8h9h11---------------------------------------------------|
-|-------------8h9h11---------------------------------------------------------|
-|-------7h9h10---------------------------------------------------------------|
-|-7h9h10---------------------------------------------------------------------|


-|12119-12119-131210-131210-131210-131210-151412-151412-151412-151412---------|
-|----------------------------------------------------------------------------|
-|----------------------------------------------------------------------------|
-|----------------------------------------------------------------------------|
-|----------------------------------------------------------------------------|
-|----------------------------------------------------------------------------|


-|-171514-171514-171514-171514-191715-191715-191715-191715-21b22b23r22b23r22b-|
-|----------------------------------------------------------------------------|
-|----------------------------------------------------------------------------|
-|----------------------------------------------------------------------------|
-|----------------------------------------------------------------------------|
-|----------------------------------------------------------------------------|


-|23r--211917-191715-171514-151412-131210-12119-987-876-654-0vvv--------------|
-|----------------------------------------------------------------------------|
-|----------------------------------------------------------------------------|
-|----------------------------------------------------------------------------|
-|----------------------------------------------------------------------------|
-|----------------------------------------------------------------------------|
   back to chorus who ends with this:

-|----------------------------------------------------------------------------|
-|----------------------------------------------------------------------------|
-|-------55555-77777-5--------------------------------------------------------|
-|-22222-55555-77777-5-2------------------------------------------------------|
-|-22222-33333-55555-3-2------------------------------------------------------|
-|-00000---------------0------------------------------------------------------|
                 Thanks this song is great live because the crowd gets in
Comments