Lerche Sondre - Modern Nature Chords & Tabs

 

Modern Nature Chords & Tabs

Lerche Sondre Chords & Tabs

Version: 1 Type: Tab 1 rating
1 star 2 stars 3 stars 4 stars 5 stars
comments

Modern Nature Tab

   
SONDRE LERCHE - Modern Nature
FACES DOWN

A very nice song you can play for the girls ! I'm working
on the bass tab so see you next time.

Intro : riff x2

e--2----0------------------0-----
B--3------3-2-----0--3--2-----0--
G--2-----------2-----------------
D--0-----------------------------
A--------------------------------
E--------------------------------

Verse 1:

     D          F#m     E        A
The moment has come to face the truth
     D      F#m     E      A
I'm wide awake and so are you
A                     E
Do you have the clue what is it (I don't know)
A                       E
Are you evrything that admit (don't hope so)
A                           E
Both just have to wait and see (wait and see)
   F#                     G       A
If things go right we're meant to be

Verse 2:

The surfer is gone I scratched them off
We made some plans I let them go
Do you have the slightest idea (no I don't know)
Why the world is right when you're in it (is that so)
Stay a while and wait and see (wait and see)
If things go right we're meant to be

Chorus:
[ Tab from: http://www.guitartabs.cc/tabs/l/lerche_sondre/modern_nature_tab.html ]
D         F#m        E          A
Oh what a world this life would be
D               F#m    E     A
Forget all your technicolor dreams
   B#         B
Forget modern nature
 A       D        G               B
This is how it's meant to be

riff x1

Verse 3:

The time is here for being straight
It's not too early and never too late
People say I should watch my pace (do that know)
"Think how you spend all your days" (they all say so)
Those just have to wait and see (wait and see)
If things go right they'll have to agree

Chorus

riff x2

Solo:       D          F#m     E        A        then

 ---------------------------------]x3
   A             E
e-------------------3-2--0---------
B--2--2-0-2-0---------------3-2-0--
G-------------2--0-----------------
D----------------------------------
A----------------------------------
E----------------------------------

   F#         G          A
e-----2--------------3--------5-----------
B---------2----------------------7--------
G--3----------3 / 4------4/6---------8 \--
D-----------------------------------------
A-----------------------------------------
E-----------------------------------------

Tadada da...
Do you have the slightest idea (no I don't)
Why the world is right when you're in it (is that so)
Stay a while we'll wait and see (wait and see)
If things go right we're meant to be

Chorus

If you have any comments or remarks, please contact me
plugin79@hotmail.com
Comments