Leprechaun Explosivo - Anyeurysm Chords & Tabs

 

Anyeurysm Chords & Tabs

Leprechaun Explosivo Chords & Tabs

Version: 1 Type: Tab 0 ratings
1 star 2 stars 3 stars 4 stars 5 stars
comments

Anyeurysm Tab

   
Riff A: intro undistorted
E:-----------------------------------
B:-----------------------------------
G:--------5-5-5-5-4-4-4-4-2-2-2-2
D:-4-4-4-5-5-5-5-4-4-4-4-2-2-2-2
A:-4-4-4-3-3-3-3-2-2-2-2-0-0-0-0
E:-2-2-2-----------------------------
     F5      C5         B5       A5 
Kick on distortion and chorus now the bass comes in
Riff B
E:-----------------------------------------------------------
B:-----------------------------------------------------------
G:3-3-3-3-3-3-3-3/4-4-4-4-4-4-4-4-4/5-5-5-5-5-5-5-5
D:-----------------------------------------------------------
A:-----------------------------------------------------------
E:-----------------------------------------------------------

E:--------------------------------------------------------------------------------------
B:--------------------------------------------------------------------------------------
G:5/6-6-6-6-6-6-6-7-7-7-7-7-7-7-8-8-8-8-8-8-8-8-9-9-9-9-9-9-9/15
D:--------------------------------------------------------------------------------------
A:--------------------------------------------------------------------------------------
E:--------------------------------------------------------------------------------------
[ Tab from: http://www.guitartabs.cc/tabs/l/leprechaun_explosivo/anyeurysm_tab.html ]
Repeat Riff A with distortion
Repeat riff B
Distortion off:
B5 is strummed 16 times kinda jazzy and uppace D5 is strummed 8 with distortion
E:--------------------------------------------------------------------------------
B:-------------------------------------------------------------------------------
G:4-4-4-4-4-4-4-4-4-4-4-4-4-4-4-7-7-7-7-7-7-7-7-7-7--------------------
D:4-4-4-4-4-4-4-4-4-4-4-4 4-4-4-7-7-7-7-7-7-7-7-7-7--------------------
A:2-2-2-2-2-2-2-2-2-2-2-2 2-2-2-5-5-5-5-5-5-5-5-5-5--------------------
E:--------------------------------------------------------------------------------
     B5                                        D5

A5: G:2
      D:2
      A:0
      E:
 
B5: G:4
      D:4
      A:2
      E:

C5: G:5
      D:5
      A:3
      E:

D5:  G:7
       D:7
       A:5
       E:
F5: G:
      D:4
      A:4
      E:2
Verse:
B5                                                 D5(distortion)
Come on over and do the twist!__          AAHAA!
Over do it and have a fit!__                   AAHAA!
Love you so much it makes me sick!__   AAHAA!
Come on over and do the twist!__           AAHAA!

Chorus
F5     A5      B5          A5           
                    Beat me outta me!
                     Beat me outta me!
                     Beat me outta me!
                     Beat me outta me!
Play verse again
Then chorus again
Play riff B
Play riff A distorted with these lyrics
F5   C5               B5          A5                        F5
       She keeps it pumping straight to my heart
       She keeps it pumping straight to my heart
       She keeps it pumping straight to my heart
       She keeps it pumping straight to my HAAAA Repeat riff b and end with lots of distortion
overdrive on chorus on and screaming HAAAA
Comments