Leo Ted - Since U Been Gone/maps Chords & Tabs

 

Since U Been Gone/maps Chords & Tabs

Leo Ted Chords & Tabs

Version: 1 Type: Tab 0 ratings
1 star 2 stars 3 stars 4 stars 5 stars
comments

Since U Been Gone/maps Tab

   
#---------------------------------PLEASE NOTE----------------------------------#
#This file is the author's own work and represents their interpretation of the #
#song. You may only use this file for private study, scholarship, or research. #
#------------------------------------------------------------------------------#
#------------Created with Taborama Tab Creator-----www.taborama.com------------#
#------------------------------------------------------------------------------#

Title: Since U Been Gone/Maps
Artist: Ted Leo


Tabbed by: John Wika Haakseth (johnwika@gmail.com)

Standard tuning

The rhythm isn't a 100%, most of the verse-parts are palm muted. 
It's all there, I think. You'll figure the order of the 
different parts out for yourself. Just listen to the song, 
that's what I usually say...

Intro:

    G
E|----------------||
B|----------------||
G|----------------||
D|--5-------------||
A|--5--let ring---||
E|--3-------------||

Verse:
   G                            A      E                           F#
E|-----------------|-----------------|-----------------|----------------||
B|-----------------|-----------------|-----------------|----------------||
G|-----------------|-----------2-2-2-|-----------------|----------------||
D|-5-5-5-5-5-5-5-5-|-5-5-5-5-5-2-2-2-|-2-2-2-2-2-2-2-2-|-2-2-2-2-2-4-4-4||
A|-5-5-5-5-5-5-5-5-|-5-5-5-5-5-0-0-0-|-2-2-2-2-2-2-2-2-|-2-2-2-2-2-4-4-4||
E|-3-3-3-3-3-3-3-3-|-3-3-3-3-3-------|-0-0-0-0-0-0-0-0-|-0-0-0-0-0-2-2-2|| x6
     
Chorus:
   B      C         G
E|----------------|----------------||
B|----------------|----------------||
G|-4-4-4-5-5--5-5-|----------------||
D|-4-4-4-5-5--5-5-|-5--5--5-5-5-5--||
A|-2-2-2-3-3--3-3-|-5--5--5-5-5-5--||
E|----------------|-3--3--3-3-3-3--|| x3

   A                G                D                C
E|----------------|----------------|----------------|----------------||
B|----------------|----------------|----------------|----------------||
G|-2--2--2-2-2-2--|----------------|-7--7--7-7-7-7--|-5--5--5-5-5-5--||
D|-2--2--2-2-2-2--|-5--5--5-5-5-5--|-7--7--7-7-7-7--|-5--5--5-5-5-5--||
A|-0--0--0-0-0-0--|-5--5--5-5-5-5--|-5--5--5-5-5-5--|-3--3--3-3-3-3--||
E|----------------|-3--3--3-3-3-3--|----------------|----------------||
[ Tab from: http://www.guitartabs.cc/tabs/l/leo_ted/since_u_been_gonemaps_tab.html ]
Post chorus:
   G                A       B
E|----------------|----------------||
B|----------------|----------------||
G|----------------|----------------||
D|-5-5-5-5-5-5-5-5|-7-7-7-7-9-9-9-9||
A|-5-5-5-5-5-5-5-5|-7-7-7-7-9-9-9-9||
E|-3-3-3-3-3-3-3-3|-5-5-5-5-7-7-7-7|| x4

After the second chorus he holds the C for a long time before he begins the Maps-bridge-thingy...

Maps-bridge-thingy:

E|----------------|----------------|----------------||
B|----------------|----------------|----------------||
G|-4-4-4-5-5-5-5/-|/12-12-12-12-12-|-12-12----------||
D|----------------|----------------|----------------||
A|-2-2-2-3-3-3-3/-|/10-10-10-10-10-|-10-10----------||
E|----------------|----------------|----------------|| x4

the last one sort of glides into
E|---------------------------------||
B|----15----15----15----15----15---||
G|-12----12----12----12----12------||
D|---------------------------------||
A|---------------------------------||
E|---------------------------------||

then there's the "wait, they don't love you like I love you"-part:

E|----------------|----------------|----------------|----------------||
B|----------------|----------------|----------------|----------------||
G|-9--9-9--9-9-9--|----------------|-9--9-9--9-9-9--|----------------||
D|-9--9-9--9-9-9--|-5--5-5--5-5-5--|-9--9-9--9-9-9--|-5--5-5--5-5-5--||
A|-7--7-7--7-7-7--|-5--5-5--5-5-5--|-7--7-7--7-7-7--|-5--5-5--5-5-5--||
E|----------------|-3--3-3--3-3-3--|----------------|-3--3-3--3-3-3--||


E|----------------|----------------|----------------|----------------||
B|----------------|----------------|----------------|----------------||
G|-5-5-5-5-5-5-5-5|----------------|-7-7-7-7-7-7-7-7|----------------||
D|-5-5-5-5-5-5-5-5|-5-5-5-5-5-5-5-5|-7-7-7-7-7-7-7-7|-5-5-5-5-5-5-5-5||
A|-3-3-3-3-3-3-3-3|-5-5-5-5-5-5-5-5|-5-5-5-5-5-5-5-5|-5-5-5-5-5-5-5-5||
E|----------------|-3-3-3-3-3-3-3-3|----------------|-3-3-3-3-3-3-3-3|| x3

And then the maps-breakdown-part:

E|-----------------------------------|-----------------------------------||
B|-----------------------------------|-------------------------------x---||
G|-12-12-12-11-12-11\----------------|-12-12-12-11-16-16-14-14-12-12-x---||
D|------------------\-5-5-5-5-7-7----|-------------------------------x-5-||
A|-10-10-10-9--10-9-\-5-5-5-5-7-7----|-10-10-10-9--14-14-12-12-10-10-x-5-||
E|--------------------3-3-3-3-5-5----|---------------------------------3-|| x2

Comments